  0
SECTION
  2
HEADER
  9
$ACADVER
  1
AC1009
  9
$EXTMIN
 10
0.0
 20
0.0
 30
0.0
  9
$EXTMAX
 10
1000.0
 20
1000.0
 30
0.0
  9
$FILLMODE
 70
 0
  9
$SPLFRAME
 70
 1
  0
ENDSEC
  0
SECTION
  2
TABLES
  0
TABLE
  2
LAYER
 70
1
  0
LAYER
  2
0
 70
     0
 62
     7
  6
CONTINUOUS
  0
ENDTAB
  0
ENDSEC
  0
SECTION
  2
ENTITIES
  0
LINE
  8
0
 62
     250
 10
1122.82
 20
123.508
 30
0.0
 11
1122.82
 21
123.508
 31
0.0
  0
LINE
  8
0
 62
     250
 10
1122.82
 20
123.508
 30
0.0
 11
1123.06
 21
123.53
 31
0.0
  0
LINE
  8
0
 62
     250
 10
1123.06
 20
123.53
 30
0.0
 11
1123.77
 21
123.618
 31
0.0
  0
LINE
  8
0
 62
     250
 10
1123.77
 20
123.618
 30
0.0
 11
1124.9
 21
123.804
 31
0.0
  0
LINE
  8
0
 62
     250
 10
1124.9
 20
123.804
 30
0.0
 11
1126.39
 21
124.124
 31
0.0
  0
LINE
  8
0
 62
     250
 10
1126.39
 20
124.124
 30
0.0
 11
1128.19
 21
124.608
 31
0.0
  0
LINE
  8
0
 62
     250
 10
1128.19
 20
124.608
 30
0.0
 11
1130.27
 21
125.288
 31
0.0
  0
LINE
  8
0
 62
     250
 10
1130.27
 20
125.288
 30
0.0
 11
1132.56
 21
126.202
 31
0.0
  0
LINE
  8
0
 62
     250
 10
1132.56
 20
126.202
 30
0.0
 11
1135.03
 21
127.38
 31
0.0
  0
LINE
  8
0
 62
     250
 10
1135.03
 20
127.38
 30
0.0
 11
1137.61
 21
128.855
 31
0.0
  0
LINE
  8
0
 62
     250
 10
1137.61
 20
128.855
 30
0.0
 11
1140.28
 21
130.661
 31
0.0
  0
LINE
  8
0
 62
     250
 10
1140.28
 20
130.661
 30
0.0
 11
1142.96
 21
132.83
 31
0.0
  0
LINE
  8
0
 62
     250
 10
1142.96
 20
132.83
 30
0.0
 11
1145.63
 21
135.398
 31
0.0
  0
LINE
  8
0
 62
     250
 10
1145.63
 20
135.398
 30
0.0
 11
1148.22
 21
138.394
 31
0.0
  0
LINE
  8
0
 62
     250
 10
1148.22
 20
138.394
 30
0.0
 11
1150.7
 21
141.854
 31
0.0
  0
LINE
  8
0
 62
     250
 10
1150.7
 20
141.854
 30
0.0
 11
1153
 21
145.81
 31
0.0
  0
LINE
  8
0
 62
     250
 10
1153
 20
145.81
 30
0.0
 11
1154.62
 21
149.153
 31
0.0
  0
LINE
  8
0
 62
     250
 10
1154.62
 20
149.153
 30
0.0
 11
1155.09
 21
150.294
 31
0.0
  0
LINE
  8
0
 62
     250
 10
1155.09
 20
150.294
 30
0.0
 11
1155.36
 21
150.966
 31
0.0
  0
LINE
  8
0
 62
     250
 10
1155.36
 20
150.966
 30
0.0
 11
1156.05
 21
153.038
 31
0.0
  0
LINE
  8
0
 62
     250
 10
1156.05
 20
153.038
 30
0.0
 11
1156.98
 21
156.474
 31
0.0
  0
LINE
  8
0
 62
     250
 10
1156.98
 20
156.474
 30
0.0
 11
1157.89
 21
160.555
 31
0.0
  0
LINE
  8
0
 62
     250
 10
1157.89
 20
160.555
 30
0.0
 11
1158.76
 21
165.24
 31
0.0
  0
LINE
  8
0
 62
     250
 10
1158.76
 20
165.24
 30
0.0
 11
1159.59
 21
170.48
 31
0.0
  0
LINE
  8
0
 62
     250
 10
1159.59
 20
170.48
 30
0.0
 11
1160.4
 21
176.23
 31
0.0
  0
LINE
  8
0
 62
     250
 10
1160.4
 20
176.23
 30
0.0
 11
1161.17
 21
182.444
 31
0.0
  0
LINE
  8
0
 62
     250
 10
1161.17
 20
182.444
 30
0.0
 11
1161.91
 21
189.077
 31
0.0
  0
LINE
  8
0
 62
     250
 10
1161.91
 20
189.077
 30
0.0
 11
1162.62
 21
196.081
 31
0.0
  0
LINE
  8
0
 62
     250
 10
1162.62
 20
196.081
 30
0.0
 11
1163.3
 21
203.412
 31
0.0
  0
LINE
  8
0
 62
     250
 10
1163.3
 20
203.412
 30
0.0
 11
1163.95
 21
211.023
 31
0.0
  0
LINE
  8
0
 62
     250
 10
1163.95
 20
211.023
 30
0.0
 11
1164.57
 21
218.87
 31
0.0
  0
LINE
  8
0
 62
     250
 10
1164.57
 20
218.87
 30
0.0
 11
1165.15
 21
226.905
 31
0.0
  0
LINE
  8
0
 62
     250
 10
1165.15
 20
226.905
 30
0.0
 11
1165.7
 21
235.085
 31
0.0
  0
LINE
  8
0
 62
     250
 10
1165.7
 20
235.085
 30
0.0
 11
1166.23
 21
243.36
 31
0.0
  0
LINE
  8
0
 62
     250
 10
1166.23
 20
243.36
 30
0.0
 11
1166.72
 21
251.689
 31
0.0
  0
LINE
  8
0
 62
     250
 10
1166.72
 20
251.689
 30
0.0
 11
1167.18
 21
260.022
 31
0.0
  0
LINE
  8
0
 62
     250
 10
1167.18
 20
260.022
 30
0.0
 11
1167.61
 21
268.315
 31
0.0
  0
LINE
  8
0
 62
     250
 10
1167.61
 20
268.315
 30
0.0
 11
1168.01
 21
276.523
 31
0.0
  0
LINE
  8
0
 62
     250
 10
1168.01
 20
276.523
 30
0.0
 11
1168.38
 21
284.598
 31
0.0
  0
LINE
  8
0
 62
     250
 10
1168.38
 20
284.598
 30
0.0
 11
1168.72
 21
292.497
 31
0.0
  0
LINE
  8
0
 62
     250
 10
1168.72
 20
292.497
 30
0.0
 11
1169.03
 21
300.171
 31
0.0
  0
LINE
  8
0
 62
     250
 10
1169.03
 20
300.171
 30
0.0
 11
1169.31
 21
307.577
 31
0.0
  0
LINE
  8
0
 62
     250
 10
1169.31
 20
307.577
 30
0.0
 11
1169.56
 21
314.667
 31
0.0
  0
LINE
  8
0
 62
     250
 10
1169.56
 20
314.667
 30
0.0
 11
1169.78
 21
321.396
 31
0.0
  0
LINE
  8
0
 62
     250
 10
1169.78
 20
321.396
 30
0.0
 11
1169.97
 21
327.72
 31
0.0
  0
LINE
  8
0
 62
     250
 10
1169.97
 20
327.72
 30
0.0
 11
1170.13
 21
333.588
 31
0.0
  0
LINE
  8
0
 62
     250
 10
1170.13
 20
333.588
 30
0.0
 11
1170.27
 21
338.96
 31
0.0
  0
LINE
  8
0
 62
     250
 10
1170.27
 20
338.96
 30
0.0
 11
1170.37
 21
343.788
 31
0.0
  0
LINE
  8
0
 62
     250
 10
1170.37
 20
343.788
 30
0.0
 11
1170.44
 21
348.025
 31
0.0
  0
LINE
  8
0
 62
     250
 10
1170.44
 20
348.025
 30
0.0
 11
1170.48
 21
351.627
 31
0.0
  0
LINE
  8
0
 62
     250
 10
1170.48
 20
351.627
 30
0.0
 11
1170.5
 21
353.818
 31
0.0
  0
LINE
  8
0
 62
     250
 10
1170.5
 20
353.818
 30
0.0
 11
1170.5
 21
354.545
 31
0.0
  0
LINE
  8
0
 62
     250
 10
1122.82
 20
585.583
 30
0.0
 11
1122.82
 21
585.583
 31
0.0
  0
LINE
  8
0
 62
     250
 10
1122.82
 20
585.583
 30
0.0
 11
1123.06
 21
585.562
 31
0.0
  0
LINE
  8
0
 62
     250
 10
1123.06
 20
585.562
 30
0.0
 11
1123.77
 21
585.474
 31
0.0
  0
LINE
  8
0
 62
     250
 10
1123.77
 20
585.474
 30
0.0
 11
1124.9
 21
585.29
 31
0.0
  0
LINE
  8
0
 62
     250
 10
1124.9
 20
585.29
 30
0.0
 11
1126.39
 21
584.969
 31
0.0
  0
LINE
  8
0
 62
     250
 10
1126.39
 20
584.969
 30
0.0
 11
1128.19
 21
584.486
 31
0.0
  0
LINE
  8
0
 62
     250
 10
1128.19
 20
584.486
 30
0.0
 11
1130.27
 21
583.805
 31
0.0
  0
LINE
  8
0
 62
     250
 10
1130.27
 20
583.805
 30
0.0
 11
1132.56
 21
582.891
 31
0.0
  0
LINE
  8
0
 62
     250
 10
1132.56
 20
582.891
 30
0.0
 11
1135.03
 21
581.713
 31
0.0
  0
LINE
  8
0
 62
     250
 10
1135.03
 20
581.713
 30
0.0
 11
1137.61
 21
580.238
 31
0.0
  0
LINE
  8
0
 62
     250
 10
1137.61
 20
580.238
 30
0.0
 11
1140.28
 21
578.429
 31
0.0
  0
LINE
  8
0
 62
     250
 10
1140.28
 20
578.429
 30
0.0
 11
1142.96
 21
576.263
 31
0.0
  0
LINE
  8
0
 62
     250
 10
1142.96
 20
576.263
 30
0.0
 11
1145.63
 21
573.694
 31
0.0
  0
LINE
  8
0
 62
     250
 10
1145.63
 20
573.694
 30
0.0
 11
1148.22
 21
570.699
 31
0.0
  0
LINE
  8
0
 62
     250
 10
1148.22
 20
570.699
 30
0.0
 11
1150.7
 21
567.238
 31
0.0
  0
LINE
  8
0
 62
     250
 10
1150.7
 20
567.238
 30
0.0
 11
1153
 21
563.28
 31
0.0
  0
LINE
  8
0
 62
     250
 10
1153
 20
563.28
 30
0.0
 11
1154.62
 21
559.939
 31
0.0
  0
LINE
  8
0
 62
     250
 10
1154.62
 20
559.939
 30
0.0
 11
1155.09
 21
558.796
 31
0.0
  0
LINE
  8
0
 62
     250
 10
1155.09
 20
558.796
 30
0.0
 11
1155.36
 21
558.126
 31
0.0
  0
LINE
  8
0
 62
     250
 10
1155.36
 20
558.126
 30
0.0
 11
1156.05
 21
556.055
 31
0.0
  0
LINE
  8
0
 62
     250
 10
1156.05
 20
556.055
 30
0.0
 11
1156.98
 21
552.619
 31
0.0
  0
LINE
  8
0
 62
     250
 10
1156.98
 20
552.619
 30
0.0
 11
1157.89
 21
548.538
 31
0.0
  0
LINE
  8
0
 62
     250
 10
1157.89
 20
548.538
 30
0.0
 11
1158.76
 21
543.853
 31
0.0
  0
LINE
  8
0
 62
     250
 10
1158.76
 20
543.853
 30
0.0
 11
1159.59
 21
538.611
 31
0.0
  0
LINE
  8
0
 62
     250
 10
1159.59
 20
538.611
 30
0.0
 11
1160.4
 21
532.864
 31
0.0
  0
LINE
  8
0
 62
     250
 10
1160.4
 20
532.864
 30
0.0
 11
1161.17
 21
526.648
 31
0.0
  0
LINE
  8
0
 62
     250
 10
1161.17
 20
526.648
 30
0.0
 11
1161.91
 21
520.016
 31
0.0
  0
LINE
  8
0
 62
     250
 10
1161.91
 20
520.016
 30
0.0
 11
1162.62
 21
513.013
 31
0.0
  0
LINE
  8
0
 62
     250
 10
1162.62
 20
513.013
 30
0.0
 11
1163.3
 21
505.682
 31
0.0
  0
LINE
  8
0
 62
     250
 10
1163.3
 20
505.682
 30
0.0
 11
1163.95
 21
498.069
 31
0.0
  0
LINE
  8
0
 62
     250
 10
1163.95
 20
498.069
 30
0.0
 11
1164.57
 21
490.224
 31
0.0
  0
LINE
  8
0
 62
     250
 10
1164.57
 20
490.224
 30
0.0
 11
1165.15
 21
482.187
 31
0.0
  0
LINE
  8
0
 62
     250
 10
1165.15
 20
482.187
 30
0.0
 11
1165.7
 21
474.006
 31
0.0
  0
LINE
  8
0
 62
     250
 10
1165.7
 20
474.006
 30
0.0
 11
1166.23
 21
465.73
 31
0.0
  0
LINE
  8
0
 62
     250
 10
1166.23
 20
465.73
 30
0.0
 11
1166.72
 21
457.405
 31
0.0
  0
LINE
  8
0
 62
     250
 10
1166.72
 20
457.405
 30
0.0
 11
1167.18
 21
449.072
 31
0.0
  0
LINE
  8
0
 62
     250
 10
1167.18
 20
449.072
 30
0.0
 11
1167.61
 21
440.778
 31
0.0
  0
LINE
  8
0
 62
     250
 10
1167.61
 20
440.778
 30
0.0
 11
1168.01
 21
432.569
 31
0.0
  0
LINE
  8
0
 62
     250
 10
1168.01
 20
432.569
 30
0.0
 11
1168.38
 21
424.494
 31
0.0
  0
LINE
  8
0
 62
     250
 10
1168.38
 20
424.494
 30
0.0
 11
1168.72
 21
416.595
 31
0.0
  0
LINE
  8
0
 62
     250
 10
1168.72
 20
416.595
 30
0.0
 11
1169.03
 21
408.922
 31
0.0
  0
LINE
  8
0
 62
     250
 10
1169.03
 20
408.922
 30
0.0
 11
1169.31
 21
401.518
 31
0.0
  0
LINE
  8
0
 62
     250
 10
1169.31
 20
401.518
 30
0.0
 11
1169.56
 21
394.427
 31
0.0
  0
LINE
  8
0
 62
     250
 10
1169.56
 20
394.427
 30
0.0
 11
1169.78
 21
387.696
 31
0.0
  0
LINE
  8
0
 62
     250
 10
1169.78
 20
387.696
 30
0.0
 11
1169.97
 21
381.374
 31
0.0
  0
LINE
  8
0
 62
     250
 10
1169.97
 20
381.374
 30
0.0
 11
1170.13
 21
375.504
 31
0.0
  0
LINE
  8
0
 62
     250
 10
1170.13
 20
375.504
 30
0.0
 11
1170.27
 21
370.134
 31
0.0
  0
LINE
  8
0
 62
     250
 10
1170.27
 20
370.134
 30
0.0
 11
1170.37
 21
365.305
 31
0.0
  0
LINE
  8
0
 62
     250
 10
1170.37
 20
365.305
 30
0.0
 11
1170.44
 21
361.068
 31
0.0
  0
LINE
  8
0
 62
     250
 10
1170.44
 20
361.068
 30
0.0
 11
1170.48
 21
357.466
 31
0.0
  0
LINE
  8
0
 62
     250
 10
1170.48
 20
357.466
 30
0.0
 11
1170.5
 21
355.275
 31
0.0
  0
LINE
  8
0
 62
     250
 10
1170.5
 20
355.275
 30
0.0
 11
1170.5
 21
354.545
 31
0.0
  0
LINE
  8
0
 62
     250
 10
739.263
 20
127.751
 30
0.0
 11
739.263
 21
127.751
 31
0.0
  0
LINE
  8
0
 62
     250
 10
739.263
 20
127.751
 30
0.0
 11
739.094
 21
127.543
 31
0.0
  0
LINE
  8
0
 62
     250
 10
739.094
 20
127.543
 30
0.0
 11
738.611
 21
126.944
 31
0.0
  0
LINE
  8
0
 62
     250
 10
738.611
 20
126.944
 30
0.0
 11
737.849
 21
125.998
 31
0.0
  0
LINE
  8
0
 62
     250
 10
737.849
 20
125.998
 30
0.0
 11
736.84
 21
124.747
 31
0.0
  0
LINE
  8
0
 62
     250
 10
736.84
 20
124.747
 30
0.0
 11
735.623
 21
123.234
 31
0.0
  0
LINE
  8
0
 62
     250
 10
735.623
 20
123.234
 30
0.0
 11
734.229
 21
121.502
 31
0.0
  0
LINE
  8
0
 62
     250
 10
734.229
 20
121.502
 30
0.0
 11
732.695
 21
119.592
 31
0.0
  0
LINE
  8
0
 62
     250
 10
732.695
 20
119.592
 30
0.0
 11
731.058
 21
117.548
 31
0.0
  0
LINE
  8
0
 62
     250
 10
731.058
 20
117.548
 30
0.0
 11
729.347
 21
115.413
 31
0.0
  0
LINE
  8
0
 62
     250
 10
729.347
 20
115.413
 30
0.0
 11
727.601
 21
113.229
 31
0.0
  0
LINE
  8
0
 62
     250
 10
727.601
 20
113.229
 30
0.0
 11
725.851
 21
111.038
 31
0.0
  0
LINE
  8
0
 62
     250
 10
725.851
 20
111.038
 30
0.0
 11
724.136
 21
108.883
 31
0.0
  0
LINE
  8
0
 62
     250
 10
724.136
 20
108.883
 30
0.0
 11
722.489
 21
106.806
 31
0.0
  0
LINE
  8
0
 62
     250
 10
722.489
 20
106.806
 30
0.0
 11
720.944
 21
104.852
 31
0.0
  0
LINE
  8
0
 62
     250
 10
720.944
 20
104.852
 30
0.0
 11
719.536
 21
103.061
 31
0.0
  0
LINE
  8
0
 62
     250
 10
719.536
 20
103.061
 30
0.0
 11
718.608
 21
101.872
 31
0.0
  0
LINE
  8
0
 62
     250
 10
718.608
 20
101.872
 30
0.0
 11
718.301
 21
101.475
 31
0.0
  0
LINE
  8
0
 62
     250
 10
718.301
 20
101.475
 30
0.0
 11
717.702
 21
100.701
 31
0.0
  0
LINE
  8
0
 62
     250
 10
717.702
 20
100.701
 30
0.0
 11
715.843
 21
98.425
 31
0.0
  0
LINE
  8
0
 62
     250
 10
715.843
 20
98.425
 30
0.0
 11
713.116
 21
95.2444
 31
0.0
  0
LINE
  8
0
 62
     250
 10
713.116
 20
95.2444
 30
0.0
 11
710.269
 21
92.0806
 31
0.0
  0
LINE
  8
0
 62
     250
 10
710.269
 20
92.0806
 30
0.0
 11
707.45
 21
89.0834
 31
0.0
  0
LINE
  8
0
 62
     250
 10
707.45
 20
89.0834
 30
0.0
 11
704.801
 21
86.4002
 31
0.0
  0
LINE
  8
0
 62
     250
 10
704.801
 20
86.4002
 30
0.0
 11
702.472
 21
84.1802
 31
0.0
  0
LINE
  8
0
 62
     250
 10
702.472
 20
84.1802
 30
0.0
 11
700.61
 21
82.5708
 31
0.0
  0
LINE
  8
0
 62
     250
 10
700.61
 20
82.5708
 30
0.0
 11
699.696
 21
81.8804
 31
0.0
  0
LINE
  8
0
 62
     250
 10
699.696
 20
81.8804
 30
0.0
 11
699.361
 21
81.7217
 31
0.0
  0
LINE
  8
0
 62
     250
 10
700.232
 20
626.95
 30
0.0
 11
700.232
 21
626.95
 31
0.0
  0
LINE
  8
0
 62
     250
 10
700.232
 20
626.95
 30
0.0
 11
700.546
 21
626.657
 31
0.0
  0
LINE
  8
0
 62
     250
 10
700.546
 20
626.657
 30
0.0
 11
701.403
 21
625.845
 31
0.0
  0
LINE
  8
0
 62
     250
 10
701.403
 20
625.845
 30
0.0
 11
702.67
 21
624.639
 31
0.0
  0
LINE
  8
0
 62
     250
 10
702.67
 20
624.639
 30
0.0
 11
704.215
 21
623.143
 31
0.0
  0
LINE
  8
0
 62
     250
 10
704.215
 20
623.143
 30
0.0
 11
705.908
 21
621.478
 31
0.0
  0
LINE
  8
0
 62
     250
 10
705.908
 20
621.478
 30
0.0
 11
707.623
 21
619.76
 31
0.0
  0
LINE
  8
0
 62
     250
 10
707.623
 20
619.76
 30
0.0
 11
709.221
 21
618.098
 31
0.0
  0
LINE
  8
0
 62
     250
 10
709.221
 20
618.098
 30
0.0
 11
710.248
 21
616.987
 31
0.0
  0
LINE
  8
0
 62
     250
 10
710.248
 20
616.987
 30
0.0
 11
710.576
 21
616.61
 31
0.0
  0
LINE
  8
0
 62
     250
 10
710.576
 20
616.61
 30
0.0
 11
711.218
 21
615.872
 31
0.0
  0
LINE
  8
0
 62
     250
 10
711.218
 20
615.872
 30
0.0
 11
713.179
 21
613.689
 31
0.0
  0
LINE
  8
0
 62
     250
 10
713.179
 20
613.689
 30
0.0
 11
716.075
 21
610.443
 31
0.0
  0
LINE
  8
0
 62
     250
 10
716.075
 20
610.443
 30
0.0
 11
719.053
 21
606.958
 31
0.0
  0
LINE
  8
0
 62
     250
 10
719.053
 20
606.958
 30
0.0
 11
721.205
 21
604.259
 31
0.0
  0
LINE
  8
0
 62
     250
 10
721.205
 20
604.259
 30
0.0
 11
721.886
 21
603.331
 31
0.0
  0
LINE
  8
0
 62
     250
 10
721.886
 20
603.331
 30
0.0
 11
722.298
 21
602.767
 31
0.0
  0
LINE
  8
0
 62
     250
 10
722.298
 20
602.767
 30
0.0
 11
723.544
 21
601.087
 31
0.0
  0
LINE
  8
0
 62
     250
 10
723.544
 20
601.087
 30
0.0
 11
725.703
 21
598.191
 31
0.0
  0
LINE
  8
0
 62
     250
 10
725.703
 20
598.191
 30
0.0
 11
728.183
 21
594.903
 31
0.0
  0
LINE
  8
0
 62
     250
 10
728.183
 20
594.903
 30
0.0
 11
730.797
 21
591.467
 31
0.0
  0
LINE
  8
0
 62
     250
 10
730.797
 20
591.467
 30
0.0
 11
733.372
 21
588.148
 31
0.0
  0
LINE
  8
0
 62
     250
 10
733.372
 20
588.148
 30
0.0
 11
735.715
 21
585.191
 31
0.0
  0
LINE
  8
0
 62
     250
 10
735.715
 20
585.191
 30
0.0
 11
737.648
 21
582.852
 31
0.0
  0
LINE
  8
0
 62
     250
 10
737.648
 20
582.852
 30
0.0
 11
738.628
 21
581.731
 31
0.0
  0
LINE
  8
0
 62
     250
 10
738.628
 20
581.731
 30
0.0
 11
738.988
 21
581.388
 31
0.0
  0
LINE
  8
0
 62
     250
 10
906.501
 20
354.545
 30
0.0
 11
906.501
 21
354.023
 31
0.0
  0
LINE
  8
0
 62
     250
 10
906.501
 20
354.023
 30
0.0
 11
906.48
 21
352.453
 31
0.0
  0
LINE
  8
0
 62
     250
 10
906.48
 20
352.453
 30
0.0
 11
906.427
 21
349.331
 31
0.0
  0
LINE
  8
0
 62
     250
 10
906.427
 20
349.331
 30
0.0
 11
906.335
 21
345.291
 31
0.0
  0
LINE
  8
0
 62
     250
 10
906.335
 20
345.291
 30
0.0
 11
906.216
 21
340.439
 31
0.0
  0
LINE
  8
0
 62
     250
 10
906.216
 20
340.439
 30
0.0
 11
906.067
 21
334.881
 31
0.0
  0
LINE
  8
0
 62
     250
 10
906.067
 20
334.881
 30
0.0
 11
905.888
 21
328.73
 31
0.0
  0
LINE
  8
0
 62
     250
 10
905.888
 20
328.73
 30
0.0
 11
905.683
 21
322.089
 31
0.0
  0
LINE
  8
0
 62
     250
 10
905.683
 20
322.089
 30
0.0
 11
905.461
 21
315.069
 31
0.0
  0
LINE
  8
0
 62
     250
 10
905.461
 20
315.069
 30
0.0
 11
905.214
 21
307.777
 31
0.0
  0
LINE
  8
0
 62
     250
 10
905.214
 20
307.777
 30
0.0
 11
904.949
 21
300.32
 31
0.0
  0
LINE
  8
0
 62
     250
 10
904.949
 20
300.32
 30
0.0
 11
904.667
 21
292.808
 31
0.0
  0
LINE
  8
0
 62
     250
 10
904.667
 20
292.808
 30
0.0
 11
904.374
 21
285.347
 31
0.0
  0
LINE
  8
0
 62
     250
 10
904.374
 20
285.347
 30
0.0
 11
904.071
 21
278.048
 31
0.0
  0
LINE
  8
0
 62
     250
 10
904.071
 20
278.048
 30
0.0
 11
903.757
 21
271.016
 31
0.0
  0
LINE
  8
0
 62
     250
 10
903.757
 20
271.016
 30
0.0
 11
903.436
 21
264.36
 31
0.0
  0
LINE
  8
0
 62
     250
 10
903.436
 20
264.36
 30
0.0
 11
903.196
 21
259.73
 31
0.0
  0
LINE
  8
0
 62
     250
 10
903.196
 20
259.73
 30
0.0
 11
903.111
 21
258.186
 31
0.0
  0
LINE
  8
0
 62
     250
 10
903.111
 20
258.186
 30
0.0
 11
902.945
 21
255.217
 31
0.0
  0
LINE
  8
0
 62
     250
 10
902.945
 20
255.217
 30
0.0
 11
902.374
 21
246.312
 31
0.0
  0
LINE
  8
0
 62
     250
 10
902.374
 20
246.312
 30
0.0
 11
901.506
 21
234.44
 31
0.0
  0
LINE
  8
0
 62
     250
 10
901.506
 20
234.44
 30
0.0
 11
900.564
 21
222.84
 31
0.0
  0
LINE
  8
0
 62
     250
 10
900.564
 20
222.84
 30
0.0
 11
899.597
 21
211.776
 31
0.0
  0
LINE
  8
0
 62
     250
 10
899.597
 20
211.776
 30
0.0
 11
898.656
 21
201.513
 31
0.0
  0
LINE
  8
0
 62
     250
 10
898.656
 20
201.513
 30
0.0
 11
897.795
 21
192.319
 31
0.0
  0
LINE
  8
0
 62
     250
 10
897.795
 20
192.319
 30
0.0
 11
897.065
 21
184.459
 31
0.0
  0
LINE
  8
0
 62
     250
 10
897.065
 20
184.459
 30
0.0
 11
896.645
 21
179.765
 31
0.0
  0
LINE
  8
0
 62
     250
 10
896.645
 20
179.765
 30
0.0
 11
896.518
 21
178.198
 31
0.0
  0
LINE
  8
0
 62
     250
 10
896.518
 20
178.198
 30
0.0
 11
896.401
 21
176.75
 31
0.0
  0
LINE
  8
0
 62
     250
 10
896.401
 20
176.75
 30
0.0
 11
895.974
 21
172.408
 31
0.0
  0
LINE
  8
0
 62
     250
 10
895.974
 20
172.408
 30
0.0
 11
895.269
 21
166.052
 31
0.0
  0
LINE
  8
0
 62
     250
 10
895.269
 20
166.052
 30
0.0
 11
894.475
 21
159.544
 31
0.0
  0
LINE
  8
0
 62
     250
 10
894.475
 20
159.544
 30
0.0
 11
893.66
 21
153.296
 31
0.0
  0
LINE
  8
0
 62
     250
 10
893.66
 20
153.296
 30
0.0
 11
892.898
 21
147.718
 31
0.0
  0
LINE
  8
0
 62
     250
 10
892.898
 20
147.718
 30
0.0
 11
892.267
 21
143.224
 31
0.0
  0
LINE
  8
0
 62
     250
 10
892.267
 20
143.224
 30
0.0
 11
891.833
 21
140.225
 31
0.0
  0
LINE
  8
0
 62
     250
 10
891.833
 20
140.225
 30
0.0
 11
891.674
 21
139.134
 31
0.0
  0
LINE
  8
0
 62
     250
 10
891.674
 20
139.134
 30
0.0
 11
891.674
 21
139.134
 31
0.0
  0
LINE
  8
0
 62
     250
 10
891.674
 20
139.134
 30
0.0
 11
891.674
 21
139.134
 31
0.0
  0
LINE
  8
0
 62
     250
 10
891.674
 20
139.134
 30
0.0
 11
892.715
 21
138.976
 31
0.0
  0
LINE
  8
0
 62
     250
 10
892.715
 20
138.976
 30
0.0
 11
895.512
 21
138.553
 31
0.0
  0
LINE
  8
0
 62
     250
 10
895.512
 20
138.553
 30
0.0
 11
899.59
 21
137.938
 31
0.0
  0
LINE
  8
0
 62
     250
 10
899.59
 20
137.938
 30
0.0
 11
904.452
 21
137.204
 31
0.0
  0
LINE
  8
0
 62
     250
 10
904.452
 20
137.204
 30
0.0
 11
909.623
 21
136.427
 31
0.0
  0
LINE
  8
0
 62
     250
 10
909.623
 20
136.427
 30
0.0
 11
914.608
 21
135.682
 31
0.0
  0
LINE
  8
0
 62
     250
 10
914.608
 20
135.682
 30
0.0
 11
918.933
 21
135.039
 31
0.0
  0
LINE
  8
0
 62
     250
 10
918.933
 20
135.039
 30
0.0
 11
921.311
 21
134.691
 31
0.0
  0
LINE
  8
0
 62
     250
 10
921.311
 20
134.691
 30
0.0
 11
922.105
 21
134.577
 31
0.0
  0
LINE
  8
0
 62
     250
 10
922.105
 20
134.577
 30
0.0
 11
922.729
 21
134.487
 31
0.0
  0
LINE
  8
0
 62
     250
 10
922.729
 20
134.487
 30
0.0
 11
924.602
 21
134.195
 31
0.0
  0
LINE
  8
0
 62
     250
 10
924.602
 20
134.195
 30
0.0
 11
927.153
 21
133.763
 31
0.0
  0
LINE
  8
0
 62
     250
 10
927.153
 20
133.763
 30
0.0
 11
929.633
 21
133.314
 31
0.0
  0
LINE
  8
0
 62
     250
 10
929.633
 20
133.314
 30
0.0
 11
931.93
 21
132.879
 31
0.0
  0
LINE
  8
0
 62
     250
 10
931.93
 20
132.879
 30
0.0
 11
933.919
 21
132.487
 31
0.0
  0
LINE
  8
0
 62
     250
 10
933.919
 20
132.487
 30
0.0
 11
935.486
 21
132.17
 31
0.0
  0
LINE
  8
0
 62
     250
 10
935.486
 20
132.17
 30
0.0
 11
936.516
 21
131.957
 31
0.0
  0
LINE
  8
0
 62
     250
 10
936.516
 20
131.957
 30
0.0
 11
936.883
 21
131.878
 31
0.0
  0
LINE
  8
0
 62
     250
 10
936.883
 20
131.878
 30
0.0
 11
936.883
 21
131.878
 31
0.0
  0
LINE
  8
0
 62
     250
 10
936.883
 20
131.878
 30
0.0
 11
936.883
 21
131.878
 31
0.0
  0
LINE
  8
0
 62
     250
 10
936.883
 20
131.878
 30
0.0
 11
937.419
 21
131.68
 31
0.0
  0
LINE
  8
0
 62
     250
 10
937.419
 20
131.68
 30
0.0
 11
938.915
 21
131.123
 31
0.0
  0
LINE
  8
0
 62
     250
 10
938.915
 20
131.123
 30
0.0
 11
941.211
 21
130.27
 31
0.0
  0
LINE
  8
0
 62
     250
 10
941.211
 20
130.27
 30
0.0
 11
944.153
 21
129.182
 31
0.0
  0
LINE
  8
0
 62
     250
 10
944.153
 20
129.182
 30
0.0
 11
947.575
 21
127.919
 31
0.0
  0
LINE
  8
0
 62
     250
 10
947.575
 20
127.919
 30
0.0
 11
951.315
 21
126.544
 31
0.0
  0
LINE
  8
0
 62
     250
 10
951.315
 20
126.544
 30
0.0
 11
955.22
 21
125.115
 31
0.0
  0
LINE
  8
0
 62
     250
 10
955.22
 20
125.115
 30
0.0
 11
958.148
 21
124.048
 31
0.0
  0
LINE
  8
0
 62
     250
 10
958.148
 20
124.048
 30
0.0
 11
959.125
 21
123.694
 31
0.0
  0
LINE
  8
0
 62
     250
 10
959.125
 20
123.694
 30
0.0
 11
961.118
 21
122.973
 31
0.0
  0
LINE
  8
0
 62
     250
 10
961.118
 20
122.973
 30
0.0
 11
967.264
 21
121.284
 31
0.0
  0
LINE
  8
0
 62
     250
 10
967.264
 20
121.284
 30
0.0
 11
975.744
 21
119.614
 31
0.0
  0
LINE
  8
0
 62
     250
 10
975.744
 20
119.614
 30
0.0
 11
983.795
 21
118.659
 31
0.0
  0
LINE
  8
0
 62
     250
 10
983.795
 20
118.659
 30
0.0
 11
988.917
 21
118.374
 31
0.0
  0
LINE
  8
0
 62
     250
 10
988.917
 20
118.374
 30
0.0
 11
990.625
 21
118.393
 31
0.0
  0
LINE
  8
0
 62
     250
 10
990.625
 20
118.393
 30
0.0
 11
991.394
 21
118.402
 31
0.0
  0
LINE
  8
0
 62
     250
 10
991.394
 20
118.402
 30
0.0
 11
993.708
 21
118.507
 31
0.0
  0
LINE
  8
0
 62
     250
 10
993.708
 20
118.507
 30
0.0
 11
997.028
 21
118.797
 31
0.0
  0
LINE
  8
0
 62
     250
 10
997.028
 20
118.797
 30
0.0
 11
1000.62
 21
119.293
 31
0.0
  0
LINE
  8
0
 62
     250
 10
1000.62
 20
119.293
 30
0.0
 11
1004.51
 21
120.02
 31
0.0
  0
LINE
  8
0
 62
     250
 10
1004.51
 20
120.02
 30
0.0
 11
1008.73
 21
121.011
 31
0.0
  0
LINE
  8
0
 62
     250
 10
1008.73
 20
121.011
 30
0.0
 11
1013.33
 21
122.29
 31
0.0
  0
LINE
  8
0
 62
     250
 10
1013.33
 20
122.29
 30
0.0
 11
1018.33
 21
123.888
 31
0.0
  0
LINE
  8
0
 62
     250
 10
1018.33
 20
123.888
 30
0.0
 11
1022.42
 21
125.326
 31
0.0
  0
LINE
  8
0
 62
     250
 10
1022.42
 20
125.326
 30
0.0
 11
1023.77
 21
125.833
 31
0.0
  0
LINE
  8
0
 62
     250
 10
1023.77
 20
125.833
 30
0.0
 11
1025.27
 21
126.399
 31
0.0
  0
LINE
  8
0
 62
     250
 10
1025.27
 20
126.399
 30
0.0
 11
1029.77
 21
128.167
 31
0.0
  0
LINE
  8
0
 62
     250
 10
1029.77
 20
128.167
 30
0.0
 11
1036.2
 21
130.806
 31
0.0
  0
LINE
  8
0
 62
     250
 10
1036.2
 20
130.806
 30
0.0
 11
1042.76
 21
133.595
 31
0.0
  0
LINE
  8
0
 62
     250
 10
1042.76
 20
133.595
 30
0.0
 11
1049.11
 21
136.379
 31
0.0
  0
LINE
  8
0
 62
     250
 10
1049.11
 20
136.379
 30
0.0
 11
1054.94
 21
139.001
 31
0.0
  0
LINE
  8
0
 62
     250
 10
1054.94
 20
139.001
 30
0.0
 11
1059.91
 21
141.307
 31
0.0
  0
LINE
  8
0
 62
     250
 10
1059.91
 20
141.307
 30
0.0
 11
1063.71
 21
143.14
 31
0.0
  0
LINE
  8
0
 62
     250
 10
1063.71
 20
143.14
 30
0.0
 11
1065.46
 21
144.019
 31
0.0
  0
LINE
  8
0
 62
     250
 10
1065.46
 20
144.019
 30
0.0
 11
1066.02
 21
144.343
 31
0.0
  0
LINE
  8
0
 62
     250
 10
1066.02
 20
144.343
 30
0.0
 11
1066.47
 21
144.602
 31
0.0
  0
LINE
  8
0
 62
     250
 10
1066.47
 20
144.602
 30
0.0
 11
1067.83
 21
145.376
 31
0.0
  0
LINE
  8
0
 62
     250
 10
1067.83
 20
145.376
 30
0.0
 11
1070.17
 21
146.709
 31
0.0
  0
LINE
  8
0
 62
     250
 10
1070.17
 20
146.709
 30
0.0
 11
1072.81
 21
148.208
 31
0.0
  0
LINE
  8
0
 62
     250
 10
1072.81
 20
148.208
 30
0.0
 11
1075.52
 21
149.738
 31
0.0
  0
LINE
  8
0
 62
     250
 10
1075.52
 20
149.738
 30
0.0
 11
1078.04
 21
151.162
 31
0.0
  0
LINE
  8
0
 62
     250
 10
1078.04
 20
151.162
 30
0.0
 11
1080.14
 21
152.348
 31
0.0
  0
LINE
  8
0
 62
     250
 10
1080.14
 20
152.348
 30
0.0
 11
1081.58
 21
153.158
 31
0.0
  0
LINE
  8
0
 62
     250
 10
1081.58
 20
153.158
 30
0.0
 11
1082.11
 21
153.457
 31
0.0
  0
LINE
  8
0
 62
     250
 10
1082.11
 20
153.457
 30
0.0
 11
1082.11
 21
153.457
 31
0.0
  0
LINE
  8
0
 62
     250
 10
892.256
 20
145.831
 30
0.0
 11
892.256
 21
145.831
 31
0.0
  0
LINE
  8
0
 62
     250
 10
892.256
 20
145.831
 30
0.0
 11
891.949
 21
145.835
 31
0.0
  0
LINE
  8
0
 62
     250
 10
891.949
 20
145.835
 30
0.0
 11
891.06
 21
145.842
 31
0.0
  0
LINE
  8
0
 62
     250
 10
891.06
 20
145.842
 30
0.0
 11
889.628
 21
145.845
 31
0.0
  0
LINE
  8
0
 62
     250
 10
889.628
 20
145.845
 30
0.0
 11
887.702
 21
145.84
 31
0.0
  0
LINE
  8
0
 62
     250
 10
887.702
 20
145.84
 30
0.0
 11
885.321
 21
145.821
 31
0.0
  0
LINE
  8
0
 62
     250
 10
885.321
 20
145.821
 30
0.0
 11
882.534
 21
145.783
 31
0.0
  0
LINE
  8
0
 62
     250
 10
882.534
 20
145.783
 30
0.0
 11
879.38
 21
145.718
 31
0.0
  0
LINE
  8
0
 62
     250
 10
879.38
 20
145.718
 30
0.0
 11
875.898
 21
145.623
 31
0.0
  0
LINE
  8
0
 62
     250
 10
875.898
 20
145.623
 30
0.0
 11
872.141
 21
145.489
 31
0.0
  0
LINE
  8
0
 62
     250
 10
872.141
 20
145.489
 30
0.0
 11
868.147
 21
145.314
 31
0.0
  0
LINE
  8
0
 62
     250
 10
868.147
 20
145.314
 30
0.0
 11
863.963
 21
145.089
 31
0.0
  0
LINE
  8
0
 62
     250
 10
863.963
 20
145.089
 30
0.0
 11
859.628
 21
144.811
 31
0.0
  0
LINE
  8
0
 62
     250
 10
859.628
 20
144.811
 30
0.0
 11
855.186
 21
144.473
 31
0.0
  0
LINE
  8
0
 62
     250
 10
855.186
 20
144.473
 30
0.0
 11
850.681
 21
144.068
 31
0.0
  0
LINE
  8
0
 62
     250
 10
850.681
 20
144.068
 30
0.0
 11
846.162
 21
143.593
 31
0.0
  0
LINE
  8
0
 62
     250
 10
846.162
 20
143.593
 30
0.0
 11
842.786
 21
143.189
 31
0.0
  0
LINE
  8
0
 62
     250
 10
842.786
 20
143.189
 30
0.0
 11
841.664
 21
143.04
 31
0.0
  0
LINE
  8
0
 62
     250
 10
841.664
 20
143.04
 30
0.0
 11
839.498
 21
142.754
 31
0.0
  0
LINE
  8
0
 62
     250
 10
839.498
 20
142.754
 30
0.0
 11
833.004
 21
141.807
 31
0.0
  0
LINE
  8
0
 62
     250
 10
833.004
 20
141.807
 30
0.0
 11
824.964
 21
140.488
 31
0.0
  0
LINE
  8
0
 62
     250
 10
824.964
 20
140.488
 30
0.0
 11
817.644
 21
139.11
 31
0.0
  0
LINE
  8
0
 62
     250
 10
817.644
 20
139.11
 30
0.0
 11
811.138
 21
137.692
 31
0.0
  0
LINE
  8
0
 62
     250
 10
811.138
 20
137.692
 30
0.0
 11
805.536
 21
136.258
 31
0.0
  0
LINE
  8
0
 62
     250
 10
805.536
 20
136.258
 30
0.0
 11
800.943
 21
134.827
 31
0.0
  0
LINE
  8
0
 62
     250
 10
800.943
 20
134.827
 30
0.0
 11
797.447
 21
133.423
 31
0.0
  0
LINE
  8
0
 62
     250
 10
797.447
 20
133.423
 30
0.0
 11
795.666
 21
132.476
 31
0.0
  0
LINE
  8
0
 62
     250
 10
795.666
 20
132.476
 30
0.0
 11
795.147
 21
132.066
 31
0.0
  0
LINE
  8
0
 62
     250
 10
795.147
 20
132.066
 30
0.0
 11
794.311
 21
131.403
 31
0.0
  0
LINE
  8
0
 62
     250
 10
794.311
 20
131.403
 30
0.0
 11
791.856
 21
129.345
 31
0.0
  0
LINE
  8
0
 62
     250
 10
791.856
 20
129.345
 30
0.0
 11
788.871
 21
126.346
 31
0.0
  0
LINE
  8
0
 62
     250
 10
788.871
 20
126.346
 30
0.0
 11
786.504
 21
122.858
 31
0.0
  0
LINE
  8
0
 62
     250
 10
786.504
 20
122.858
 30
0.0
 11
785.269
 21
119.747
 31
0.0
  0
LINE
  8
0
 62
     250
 10
785.269
 20
119.747
 30
0.0
 11
785.068
 21
118.671
 31
0.0
  0
LINE
  8
0
 62
     250
 10
785.068
 20
118.671
 30
0.0
 11
784.927
 21
117.939
 31
0.0
  0
LINE
  8
0
 62
     250
 10
784.927
 20
117.939
 30
0.0
 11
784.507
 21
115.743
 31
0.0
  0
LINE
  8
0
 62
     250
 10
784.507
 20
115.743
 30
0.0
 11
783.745
 21
111.629
 31
0.0
  0
LINE
  8
0
 62
     250
 10
783.745
 20
111.629
 30
0.0
 11
782.86
 21
106.44
 31
0.0
  0
LINE
  8
0
 62
     250
 10
782.86
 20
106.44
 30
0.0
 11
781.918
 21
100.28
 31
0.0
  0
LINE
  8
0
 62
     250
 10
781.918
 20
100.28
 30
0.0
 11
780.994
 21
93.2561
 31
0.0
  0
LINE
  8
0
 62
     250
 10
780.994
 20
93.2561
 30
0.0
 11
780.161
 21
85.477
 31
0.0
  0
LINE
  8
0
 62
     250
 10
780.161
 20
85.477
 30
0.0
 11
779.491
 21
77.0474
 31
0.0
  0
LINE
  8
0
 62
     250
 10
779.491
 20
77.0474
 30
0.0
 11
779.127
 21
70.3185
 31
0.0
  0
LINE
  8
0
 62
     250
 10
779.127
 20
70.3185
 30
0.0
 11
779.057
 21
68.0738
 31
0.0
  0
LINE
  8
0
 62
     250
 10
779.057
 20
68.0738
 30
0.0
 11
778.99
 21
65.8936
 31
0.0
  0
LINE
  8
0
 62
     250
 10
778.99
 20
65.8936
 30
0.0
 11
778.888
 21
59.3453
 31
0.0
  0
LINE
  8
0
 62
     250
 10
778.888
 20
59.3453
 30
0.0
 11
778.965
 21
51.5303
 31
0.0
  0
LINE
  8
0
 62
     250
 10
778.965
 20
51.5303
 30
0.0
 11
779.3
 21
44.5714
 31
0.0
  0
LINE
  8
0
 62
     250
 10
779.3
 20
44.5714
 30
0.0
 11
779.903
 21
38.4044
 31
0.0
  0
LINE
  8
0
 62
     250
 10
779.903
 20
38.4044
 30
0.0
 11
780.792
 21
32.9709
 31
0.0
  0
LINE
  8
0
 62
     250
 10
780.792
 20
32.9709
 30
0.0
 11
781.974
 21
28.2084
 31
0.0
  0
LINE
  8
0
 62
     250
 10
781.974
 20
28.2084
 30
0.0
 11
783.46
 21
24.0564
 31
0.0
  0
LINE
  8
0
 62
     250
 10
783.46
 20
24.0564
 30
0.0
 11
784.751
 21
21.3196
 31
0.0
  0
LINE
  8
0
 62
     250
 10
784.751
 20
21.3196
 30
0.0
 11
785.259
 21
20.4529
 31
0.0
  0
LINE
  8
0
 62
     250
 10
785.259
 20
20.4529
 30
0.0
 11
785.735
 21
19.6412
 31
0.0
  0
LINE
  8
0
 62
     250
 10
785.735
 20
19.6412
 30
0.0
 11
787.449
 21
17.3743
 31
0.0
  0
LINE
  8
0
 62
     250
 10
787.449
 20
17.3743
 30
0.0
 11
790.032
 21
14.7974
 31
0.0
  0
LINE
  8
0
 62
     250
 10
790.032
 20
14.7974
 30
0.0
 11
792.907
 21
12.6642
 31
0.0
  0
LINE
  8
0
 62
     250
 10
792.907
 20
12.6642
 30
0.0
 11
795.969
 21
10.9196
 31
0.0
  0
LINE
  8
0
 62
     250
 10
795.969
 20
10.9196
 30
0.0
 11
799.123
 21
9.5057
 31
0.0
  0
LINE
  8
0
 62
     250
 10
799.123
 20
9.5057
 30
0.0
 11
802.27
 21
8.36747
 31
0.0
  0
LINE
  8
0
 62
     250
 10
802.27
 20
8.36747
 30
0.0
 11
805.303
 21
7.44693
 31
0.0
  0
LINE
  8
0
 62
     250
 10
805.303
 20
7.44693
 30
0.0
 11
807.424
 21
6.87229
 31
0.0
  0
LINE
  8
0
 62
     250
 10
807.424
 20
6.87229
 30
0.0
 11
808.133
 21
6.68761
 31
0.0
  0
LINE
  8
0
 62
     250
 10
808.133
 20
6.68761
 30
0.0
 11
809.025
 21
6.45612
 31
0.0
  0
LINE
  8
0
 62
     250
 10
809.025
 20
6.45612
 30
0.0
 11
811.731
 21
5.87456
 31
0.0
  0
LINE
  8
0
 62
     250
 10
811.731
 20
5.87456
 30
0.0
 11
816.871
 21
4.88654
 31
0.0
  0
LINE
  8
0
 62
     250
 10
816.871
 20
4.88654
 30
0.0
 11
823.119
 21
3.81028
 31
0.0
  0
LINE
  8
0
 62
     250
 10
823.119
 20
3.81028
 30
0.0
 11
830.058
 21
2.73541
 31
0.0
  0
LINE
  8
0
 62
     250
 10
830.058
 20
2.73541
 30
0.0
 11
837.262
 21
1.74735
 31
0.0
  0
LINE
  8
0
 62
     250
 10
837.262
 20
1.74735
 30
0.0
 11
844.303
 21
0.932931
 31
0.0
  0
LINE
  8
0
 62
     250
 10
844.303
 20
0.932931
 30
0.0
 11
850.759
 21
0.38034
 31
0.0
  0
LINE
  8
0
 62
     250
 10
850.759
 20
0.38034
 30
0.0
 11
854.841
 21
0.176389
 31
0.0
  0
LINE
  8
0
 62
     250
 10
854.841
 20
0.176389
 30
0.0
 11
856.202
 21
0.176389
 31
0.0
  0
LINE
  8
0
 62
     250
 10
856.202
 20
0.176389
 30
0.0
 11
857.525
 21
0.176389
 31
0.0
  0
LINE
  8
0
 62
     250
 10
857.525
 20
0.176389
 30
0.0
 11
861.497
 21
0.268718
 31
0.0
  0
LINE
  8
0
 62
     250
 10
861.497
 20
0.268718
 30
0.0
 11
867.601
 21
0.523656
 31
0.0
  0
LINE
  8
0
 62
     250
 10
867.601
 20
0.523656
 30
0.0
 11
874.233
 21
0.912262
 31
0.0
  0
LINE
  8
0
 62
     250
 10
874.233
 20
0.912262
 30
0.0
 11
881.108
 21
1.40973
 31
0.0
  0
LINE
  8
0
 62
     250
 10
881.108
 20
1.40973
 30
0.0
 11
887.949
 21
1.98438
 31
0.0
  0
LINE
  8
0
 62
     250
 10
887.949
 20
1.98438
 30
0.0
 11
894.472
 21
2.61001
 31
0.0
  0
LINE
  8
0
 62
     250
 10
894.472
 20
2.61001
 30
0.0
 11
900.395
 21
3.25768
 31
0.0
  0
LINE
  8
0
 62
     250
 10
900.395
 20
3.25768
 30
0.0
 11
904.177
 21
3.72209
 31
0.0
  0
LINE
  8
0
 62
     250
 10
904.177
 20
3.72209
 30
0.0
 11
905.436
 21
3.8971
 31
0.0
  0
LINE
  8
0
 62
     250
 10
905.436
 20
3.8971
 30
0.0
 11
906.099
 21
3.9908
 31
0.0
  0
LINE
  8
0
 62
     250
 10
906.099
 20
3.9908
 30
0.0
 11
908.096
 21
4.26642
 31
0.0
  0
LINE
  8
0
 62
     250
 10
908.096
 20
4.26642
 30
0.0
 11
911.514
 21
4.7377
 31
0.0
  0
LINE
  8
0
 62
     250
 10
911.514
 20
4.7377
 30
0.0
 11
915.589
 21
5.3013
 31
0.0
  0
LINE
  8
0
 62
     250
 10
915.589
 20
5.3013
 30
0.0
 11
920.228
 21
5.94625
 31
0.0
  0
LINE
  8
0
 62
     250
 10
920.228
 20
5.94625
 30
0.0
 11
925.333
 21
6.66281
 31
0.0
  0
LINE
  8
0
 62
     250
 10
925.333
 20
6.66281
 30
0.0
 11
930.811
 21
7.43864
 31
0.0
  0
LINE
  8
0
 62
     250
 10
930.811
 20
7.43864
 30
0.0
 11
936.569
 21
8.2641
 31
0.0
  0
LINE
  8
0
 62
     250
 10
936.569
 20
8.2641
 30
0.0
 11
942.506
 21
9.1295
 31
0.0
  0
LINE
  8
0
 62
     250
 10
942.506
 20
9.1295
 30
0.0
 11
948.528
 21
10.0225
 31
0.0
  0
LINE
  8
0
 62
     250
 10
948.528
 20
10.0225
 30
0.0
 11
954.543
 21
10.9334
 31
0.0
  0
LINE
  8
0
 62
     250
 10
954.543
 20
10.9334
 30
0.0
 11
960.455
 21
11.8511
 31
0.0
  0
LINE
  8
0
 62
     250
 10
960.455
 20
11.8511
 30
0.0
 11
966.163
 21
12.7648
 31
0.0
  0
LINE
  8
0
 62
     250
 10
966.163
 20
12.7648
 30
0.0
 11
971.578
 21
13.666
 31
0.0
  0
LINE
  8
0
 62
     250
 10
971.578
 20
13.666
 30
0.0
 11
976.602
 21
14.5411
 31
0.0
  0
LINE
  8
0
 62
     250
 10
976.602
 20
14.5411
 30
0.0
 11
981.142
 21
15.3803
 31
0.0
  0
LINE
  8
0
 62
     250
 10
981.142
 20
15.3803
 30
0.0
 11
984.112
 21
15.9659
 31
0.0
  0
LINE
  8
0
 62
     250
 10
984.112
 20
15.9659
 30
0.0
 11
985.1
 21
16.174
 31
0.0
  0
LINE
  8
0
 62
     250
 10
985.1
 20
16.174
 30
0.0
 11
986.97
 21
16.5695
 31
0.0
  0
LINE
  8
0
 62
     250
 10
986.97
 20
16.5695
 30
0.0
 11
992.583
 21
17.8139
 31
0.0
  0
LINE
  8
0
 62
     250
 10
992.583
 20
17.8139
 30
0.0
 11
1000.45
 21
19.6949
 31
0.0
  0
LINE
  8
0
 62
     250
 10
1000.45
 20
19.6949
 30
0.0
 11
1008.62
 21
21.8681
 31
0.0
  0
LINE
  8
0
 62
     250
 10
1008.62
 20
21.8681
 30
0.0
 11
1017.03
 21
24.383
 31
0.0
  0
LINE
  8
0
 62
     250
 10
1017.03
 20
24.383
 30
0.0
 11
1025.61
 21
27.2907
 31
0.0
  0
LINE
  8
0
 62
     250
 10
1025.61
 20
27.2907
 30
0.0
 11
1034.27
 21
30.6407
 31
0.0
  0
LINE
  8
0
 62
     250
 10
1034.27
 20
30.6407
 30
0.0
 11
1042.95
 21
34.484
 31
0.0
  0
LINE
  8
0
 62
     250
 10
1042.95
 20
34.484
 30
0.0
 11
1049.46
 21
37.7127
 31
0.0
  0
LINE
  8
0
 62
     250
 10
1049.46
 20
37.7127
 30
0.0
 11
1051.58
 21
38.8691
 31
0.0
  0
LINE
  8
0
 62
     250
 10
1051.58
 20
38.8691
 30
0.0
 11
1053.72
 21
40.0346
 31
0.0
  0
LINE
  8
0
 62
     250
 10
1053.72
 20
40.0346
 30
0.0
 11
1059.99
 21
43.7928
 31
0.0
  0
LINE
  8
0
 62
     250
 10
1059.99
 20
43.7928
 30
0.0
 11
1068.05
 21
49.203
 31
0.0
  0
LINE
  8
0
 62
     250
 10
1068.05
 20
49.203
 30
0.0
 11
1075.75
 21
55.0788
 31
0.0
  0
LINE
  8
0
 62
     250
 10
1075.75
 20
55.0788
 30
0.0
 11
1083.06
 21
61.4013
 31
0.0
  0
LINE
  8
0
 62
     250
 10
1083.06
 20
61.4013
 30
0.0
 11
1089.95
 21
68.151
 31
0.0
  0
LINE
  8
0
 62
     250
 10
1089.95
 20
68.151
 30
0.0
 11
1096.42
 21
75.3085
 31
0.0
  0
LINE
  8
0
 62
     250
 10
1096.42
 20
75.3085
 30
0.0
 11
1102.44
 21
82.8544
 31
0.0
  0
LINE
  8
0
 62
     250
 10
1102.44
 20
82.8544
 30
0.0
 11
1106.66
 21
88.7497
 31
0.0
  0
LINE
  8
0
 62
     250
 10
1106.66
 20
88.7497
 30
0.0
 11
1107.99
 21
90.7687
 31
0.0
  0
LINE
  8
0
 62
     250
 10
1107.99
 20
90.7687
 30
0.0
 11
1109.33
 21
92.8247
 31
0.0
  0
LINE
  8
0
 62
     250
 10
1109.33
 20
92.8247
 30
0.0
 11
1112.95
 21
99.2752
 31
0.0
  0
LINE
  8
0
 62
     250
 10
1112.95
 20
99.2752
 30
0.0
 11
1117.24
 21
108.52
 31
0.0
  0
LINE
  8
0
 62
     250
 10
1117.24
 20
108.52
 30
0.0
 11
1120.92
 21
118.371
 31
0.0
  0
LINE
  8
0
 62
     250
 10
1120.92
 20
118.371
 30
0.0
 11
1124.03
 21
128.694
 31
0.0
  0
LINE
  8
0
 62
     250
 10
1124.03
 20
128.694
 30
0.0
 11
1126.61
 21
139.358
 31
0.0
  0
LINE
  8
0
 62
     250
 10
1126.61
 20
139.358
 30
0.0
 11
1128.7
 21
150.228
 31
0.0
  0
LINE
  8
0
 62
     250
 10
1128.7
 20
150.228
 30
0.0
 11
1130.36
 21
161.174
 31
0.0
  0
LINE
  8
0
 62
     250
 10
1130.36
 20
161.174
 30
0.0
 11
1131.36
 21
169.335
 31
0.0
  0
LINE
  8
0
 62
     250
 10
1131.36
 20
169.335
 30
0.0
 11
1131.64
 21
172.059
 31
0.0
  0
LINE
  8
0
 62
     250
 10
1131.64
 20
172.059
 30
0.0
 11
1131.71
 21
172.82
 31
0.0
  0
LINE
  8
0
 62
     250
 10
1131.71
 20
172.82
 30
0.0
 11
1131.91
 21
175.104
 31
0.0
  0
LINE
  8
0
 62
     250
 10
1131.91
 20
175.104
 30
0.0
 11
1132.19
 21
178.799
 31
0.0
  0
LINE
  8
0
 62
     250
 10
1132.19
 20
178.799
 30
0.0
 11
1132.47
 21
183.097
 31
0.0
  0
LINE
  8
0
 62
     250
 10
1132.47
 20
183.097
 30
0.0
 11
1132.75
 21
187.95
 31
0.0
  0
LINE
  8
0
 62
     250
 10
1132.75
 20
187.95
 30
0.0
 11
1133.04
 21
193.31
 31
0.0
  0
LINE
  8
0
 62
     250
 10
1133.04
 20
193.31
 30
0.0
 11
1133.32
 21
199.129
 31
0.0
  0
LINE
  8
0
 62
     250
 10
1133.32
 20
199.129
 30
0.0
 11
1133.61
 21
205.359
 31
0.0
  0
LINE
  8
0
 62
     250
 10
1133.61
 20
205.359
 30
0.0
 11
1133.89
 21
211.952
 31
0.0
  0
LINE
  8
0
 62
     250
 10
1133.89
 20
211.952
 30
0.0
 11
1134.17
 21
218.862
 31
0.0
  0
LINE
  8
0
 62
     250
 10
1134.17
 20
218.862
 30
0.0
 11
1134.45
 21
226.037
 31
0.0
  0
LINE
  8
0
 62
     250
 10
1134.45
 20
226.037
 30
0.0
 11
1134.73
 21
233.431
 31
0.0
  0
LINE
  8
0
 62
     250
 10
1134.73
 20
233.431
 30
0.0
 11
1135
 21
240.998
 31
0.0
  0
LINE
  8
0
 62
     250
 10
1135
 20
240.998
 30
0.0
 11
1135.26
 21
248.689
 31
0.0
  0
LINE
  8
0
 62
     250
 10
1135.26
 20
248.689
 30
0.0
 11
1135.52
 21
256.456
 31
0.0
  0
LINE
  8
0
 62
     250
 10
1135.52
 20
256.456
 30
0.0
 11
1135.78
 21
264.249
 31
0.0
  0
LINE
  8
0
 62
     250
 10
1135.78
 20
264.249
 30
0.0
 11
1136.02
 21
272.022
 31
0.0
  0
LINE
  8
0
 62
     250
 10
1136.02
 20
272.022
 30
0.0
 11
1136.25
 21
279.728
 31
0.0
  0
LINE
  8
0
 62
     250
 10
1136.25
 20
279.728
 30
0.0
 11
1136.48
 21
287.317
 31
0.0
  0
LINE
  8
0
 62
     250
 10
1136.48
 20
287.317
 30
0.0
 11
1136.7
 21
294.743
 31
0.0
  0
LINE
  8
0
 62
     250
 10
1136.7
 20
294.743
 30
0.0
 11
1136.91
 21
301.956
 31
0.0
  0
LINE
  8
0
 62
     250
 10
1136.91
 20
301.956
 30
0.0
 11
1137.1
 21
308.911
 31
0.0
  0
LINE
  8
0
 62
     250
 10
1137.1
 20
308.911
 30
0.0
 11
1137.28
 21
315.555
 31
0.0
  0
LINE
  8
0
 62
     250
 10
1137.28
 20
315.555
 30
0.0
 11
1137.45
 21
321.846
 31
0.0
  0
LINE
  8
0
 62
     250
 10
1137.45
 20
321.846
 30
0.0
 11
1137.6
 21
327.733
 31
0.0
  0
LINE
  8
0
 62
     250
 10
1137.6
 20
327.733
 30
0.0
 11
1137.74
 21
333.168
 31
0.0
  0
LINE
  8
0
 62
     250
 10
1137.74
 20
333.168
 30
0.0
 11
1137.87
 21
338.104
 31
0.0
  0
LINE
  8
0
 62
     250
 10
1137.87
 20
338.104
 30
0.0
 11
1137.97
 21
342.492
 31
0.0
  0
LINE
  8
0
 62
     250
 10
1137.97
 20
342.492
 30
0.0
 11
1138.06
 21
346.286
 31
0.0
  0
LINE
  8
0
 62
     250
 10
1138.06
 20
346.286
 30
0.0
 11
1138.13
 21
349.436
 31
0.0
  0
LINE
  8
0
 62
     250
 10
1138.13
 20
349.436
 30
0.0
 11
1138.18
 21
351.894
 31
0.0
  0
LINE
  8
0
 62
     250
 10
1138.18
 20
351.894
 30
0.0
 11
1138.21
 21
353.614
 31
0.0
  0
LINE
  8
0
 62
     250
 10
1138.21
 20
353.614
 30
0.0
 11
1138.22
 21
354.312
 31
0.0
  0
LINE
  8
0
 62
     250
 10
1138.22
 20
354.312
 30
0.0
 11
1138.22
 21
354.545
 31
0.0
  0
LINE
  8
0
 62
     250
 10
787.294
 20
123.996
 30
0.0
 11
787.294
 21
123.996
 31
0.0
  0
LINE
  8
0
 62
     250
 10
787.294
 20
123.996
 30
0.0
 11
787.329
 21
123.793
 31
0.0
  0
LINE
  8
0
 62
     250
 10
787.329
 20
123.793
 30
0.0
 11
787.449
 21
123.234
 31
0.0
  0
LINE
  8
0
 62
     250
 10
787.449
 20
123.234
 30
0.0
 11
787.696
 21
122.393
 31
0.0
  0
LINE
  8
0
 62
     250
 10
787.696
 20
122.393
 30
0.0
 11
788.102
 21
121.346
 31
0.0
  0
LINE
  8
0
 62
     250
 10
788.102
 20
121.346
 30
0.0
 11
788.705
 21
120.168
 31
0.0
  0
LINE
  8
0
 62
     250
 10
788.705
 20
120.168
 30
0.0
 11
789.534
 21
118.934
 31
0.0
  0
LINE
  8
0
 62
     250
 10
789.534
 20
118.934
 30
0.0
 11
790.628
 21
117.72
 31
0.0
  0
LINE
  8
0
 62
     250
 10
790.628
 20
117.72
 30
0.0
 11
791.651
 21
116.851
 31
0.0
  0
LINE
  8
0
 62
     250
 10
791.651
 20
116.851
 30
0.0
 11
792.021
 21
116.601
 31
0.0
  0
LINE
  8
0
 62
     250
 10
792.021
 20
116.601
 30
0.0
 11
792.533
 21
116.257
 31
0.0
  0
LINE
  8
0
 62
     250
 10
792.533
 20
116.257
 30
0.0
 11
794.226
 21
115.459
 31
0.0
  0
LINE
  8
0
 62
     250
 10
794.226
 20
115.459
 30
0.0
 11
797.669
 21
114.168
 31
0.0
  0
LINE
  8
0
 62
     250
 10
797.669
 20
114.168
 30
0.0
 11
802.234
 21
112.794
 31
0.0
  0
LINE
  8
0
 62
     250
 10
802.234
 20
112.794
 30
0.0
 11
807.819
 21
111.406
 31
0.0
  0
LINE
  8
0
 62
     250
 10
807.819
 20
111.406
 30
0.0
 11
814.313
 21
110.069
 31
0.0
  0
LINE
  8
0
 62
     250
 10
814.313
 20
110.069
 30
0.0
 11
821.612
 21
108.853
 31
0.0
  0
LINE
  8
0
 62
     250
 10
821.612
 20
108.853
 30
0.0
 11
829.603
 21
107.822
 31
0.0
  0
LINE
  8
0
 62
     250
 10
829.603
 20
107.822
 30
0.0
 11
836.03
 21
107.198
 31
0.0
  0
LINE
  8
0
 62
     250
 10
836.03
 20
107.198
 30
0.0
 11
838.175
 21
107.045
 31
0.0
  0
LINE
  8
0
 62
     250
 10
838.175
 20
107.045
 30
0.0
 11
840.331
 21
106.892
 31
0.0
  0
LINE
  8
0
 62
     250
 10
840.331
 20
106.892
 30
0.0
 11
846.801
 21
106.443
 31
0.0
  0
LINE
  8
0
 62
     250
 10
846.801
 20
106.443
 30
0.0
 11
855.045
 21
105.942
 31
0.0
  0
LINE
  8
0
 62
     250
 10
855.045
 20
105.942
 30
0.0
 11
862.944
 21
105.618
 31
0.0
  0
LINE
  8
0
 62
     250
 10
862.944
 20
105.618
 30
0.0
 11
870.539
 21
105.545
 31
0.0
  0
LINE
  8
0
 62
     250
 10
870.539
 20
105.545
 30
0.0
 11
877.866
 21
105.8
 31
0.0
  0
LINE
  8
0
 62
     250
 10
877.866
 20
105.8
 30
0.0
 11
884.968
 21
106.458
 31
0.0
  0
LINE
  8
0
 62
     250
 10
884.968
 20
106.458
 30
0.0
 11
891.886
 21
107.592
 31
0.0
  0
LINE
  8
0
 62
     250
 10
891.886
 20
107.592
 30
0.0
 11
896.98
 21
108.782
 31
0.0
  0
LINE
  8
0
 62
     250
 10
896.98
 20
108.782
 30
0.0
 11
898.652
 21
109.277
 31
0.0
  0
LINE
  8
0
 62
     250
 10
898.652
 20
109.277
 30
0.0
 11
899.502
 21
109.53
 31
0.0
  0
LINE
  8
0
 62
     250
 10
899.502
 20
109.53
 30
0.0
 11
902.025
 21
110.406
 31
0.0
  0
LINE
  8
0
 62
     250
 10
902.025
 20
110.406
 30
0.0
 11
905.425
 21
111.771
 31
0.0
  0
LINE
  8
0
 62
     250
 10
905.425
 20
111.771
 30
0.0
 11
908.819
 21
113.333
 31
0.0
  0
LINE
  8
0
 62
     250
 10
908.819
 20
113.333
 30
0.0
 11
912.167
 21
115.045
 31
0.0
  0
LINE
  8
0
 62
     250
 10
912.167
 20
115.045
 30
0.0
 11
915.441
 21
116.869
 31
0.0
  0
LINE
  8
0
 62
     250
 10
915.441
 20
116.869
 30
0.0
 11
918.605
 21
118.758
 31
0.0
  0
LINE
  8
0
 62
     250
 10
918.605
 20
118.758
 30
0.0
 11
921.625
 21
120.672
 31
0.0
  0
LINE
  8
0
 62
     250
 10
921.625
 20
120.672
 30
0.0
 11
924.472
 21
122.567
 31
0.0
  0
LINE
  8
0
 62
     250
 10
924.472
 20
122.567
 30
0.0
 11
927.107
 21
124.398
 31
0.0
  0
LINE
  8
0
 62
     250
 10
927.107
 20
124.398
 30
0.0
 11
929.499
 21
126.125
 31
0.0
  0
LINE
  8
0
 62
     250
 10
929.499
 20
126.125
 30
0.0
 11
931.616
 21
127.704
 31
0.0
  0
LINE
  8
0
 62
     250
 10
931.616
 20
127.704
 30
0.0
 11
933.425
 21
129.093
 31
0.0
  0
LINE
  8
0
 62
     250
 10
933.425
 20
129.093
 30
0.0
 11
934.886
 21
130.248
 31
0.0
  0
LINE
  8
0
 62
     250
 10
934.886
 20
130.248
 30
0.0
 11
935.976
 21
131.126
 31
0.0
  0
LINE
  8
0
 62
     250
 10
935.976
 20
131.126
 30
0.0
 11
936.65
 21
131.684
 31
0.0
  0
LINE
  8
0
 62
     250
 10
936.65
 20
131.684
 30
0.0
 11
936.883
 21
131.878
 31
0.0
  0
LINE
  8
0
 62
     250
 10
936.883
 20
131.878
 30
0.0
 11
936.883
 21
131.878
 31
0.0
  0
LINE
  8
0
 62
     250
 10
936.883
 20
131.878
 30
0.0
 11
936.883
 21
131.878
 31
0.0
  0
LINE
  8
0
 62
     250
 10
936.883
 20
131.878
 30
0.0
 11
937.041
 21
132.79
 31
0.0
  0
LINE
  8
0
 62
     250
 10
937.041
 20
132.79
 30
0.0
 11
937.482
 21
134.983
 31
0.0
  0
LINE
  8
0
 62
     250
 10
937.482
 20
134.983
 30
0.0
 11
938.17
 21
137.647
 31
0.0
  0
LINE
  8
0
 62
     250
 10
938.17
 20
137.647
 30
0.0
 11
938.777
 21
139.423
 31
0.0
  0
LINE
  8
0
 62
     250
 10
938.777
 20
139.423
 30
0.0
 11
939.063
 21
139.97
 31
0.0
  0
LINE
  8
0
 62
     250
 10
939.063
 20
139.97
 30
0.0
 11
939.253
 21
140.334
 31
0.0
  0
LINE
  8
0
 62
     250
 10
939.253
 20
140.334
 30
0.0
 11
939.775
 21
141.444
 31
0.0
  0
LINE
  8
0
 62
     250
 10
939.775
 20
141.444
 30
0.0
 11
940.897
 21
143.917
 31
0.0
  0
LINE
  8
0
 62
     250
 10
940.897
 20
143.917
 30
0.0
 11
942.368
 21
147.285
 31
0.0
  0
LINE
  8
0
 62
     250
 10
942.368
 20
147.285
 30
0.0
 11
944.136
 21
151.446
 31
0.0
  0
LINE
  8
0
 62
     250
 10
944.136
 20
151.446
 30
0.0
 11
946.136
 21
156.301
 31
0.0
  0
LINE
  8
0
 62
     250
 10
946.136
 20
156.301
 30
0.0
 11
948.323
 21
161.749
 31
0.0
  0
LINE
  8
0
 62
     250
 10
948.323
 20
161.749
 30
0.0
 11
950.637
 21
167.685
 31
0.0
  0
LINE
  8
0
 62
     250
 10
950.637
 20
167.685
 30
0.0
 11
952.433
 21
172.427
 31
0.0
  0
LINE
  8
0
 62
     250
 10
952.433
 20
172.427
 30
0.0
 11
953.022
 21
174.012
 31
0.0
  0
LINE
  8
0
 62
     250
 10
953.022
 20
174.012
 30
0.0
 11
953.671
 21
175.773
 31
0.0
  0
LINE
  8
0
 62
     250
 10
953.671
 20
175.773
 30
0.0
 11
955.428
 21
181.13
 31
0.0
  0
LINE
  8
0
 62
     250
 10
955.428
 20
181.13
 30
0.0
 11
957.831
 21
189.32
 31
0.0
  0
LINE
  8
0
 62
     250
 10
957.831
 20
189.32
 30
0.0
 11
960.162
 21
198.318
 31
0.0
  0
LINE
  8
0
 62
     250
 10
960.162
 20
198.318
 30
0.0
 11
962.378
 21
207.845
 31
0.0
  0
LINE
  8
0
 62
     250
 10
962.378
 20
207.845
 30
0.0
 11
964.424
 21
217.636
 31
0.0
  0
LINE
  8
0
 62
     250
 10
964.424
 20
217.636
 30
0.0
 11
966.244
 21
227.417
 31
0.0
  0
LINE
  8
0
 62
     250
 10
966.244
 20
227.417
 30
0.0
 11
967.793
 21
236.916
 31
0.0
  0
LINE
  8
0
 62
     250
 10
967.793
 20
236.916
 30
0.0
 11
968.742
 21
243.623
 31
0.0
  0
LINE
  8
0
 62
     250
 10
968.742
 20
243.623
 30
0.0
 11
969.01
 21
245.863
 31
0.0
  0
LINE
  8
0
 62
     250
 10
969.01
 20
245.863
 30
0.0
 11
969.155
 21
247.069
 31
0.0
  0
LINE
  8
0
 62
     250
 10
969.155
 20
247.069
 30
0.0
 11
969.529
 21
250.693
 31
0.0
  0
LINE
  8
0
 62
     250
 10
969.529
 20
250.693
 30
0.0
 11
970.047
 21
256.496
 31
0.0
  0
LINE
  8
0
 62
     250
 10
970.047
 20
256.496
 30
0.0
 11
970.559
 21
263.122
 31
0.0
  0
LINE
  8
0
 62
     250
 10
970.559
 20
263.122
 30
0.0
 11
971.063
 21
270.418
 31
0.0
  0
LINE
  8
0
 62
     250
 10
971.063
 20
270.418
 30
0.0
 11
971.55
 21
278.232
 31
0.0
  0
LINE
  8
0
 62
     250
 10
971.55
 20
278.232
 30
0.0
 11
972.019
 21
286.407
 31
0.0
  0
LINE
  8
0
 62
     250
 10
972.019
 20
286.407
 30
0.0
 11
972.464
 21
294.794
 31
0.0
  0
LINE
  8
0
 62
     250
 10
972.464
 20
294.794
 30
0.0
 11
972.88
 21
303.239
 31
0.0
  0
LINE
  8
0
 62
     250
 10
972.88
 20
303.239
 30
0.0
 11
973.265
 21
311.59
 31
0.0
  0
LINE
  8
0
 62
     250
 10
973.265
 20
311.59
 30
0.0
 11
973.614
 21
319.693
 31
0.0
  0
LINE
  8
0
 62
     250
 10
973.614
 20
319.693
 30
0.0
 11
973.921
 21
327.394
 31
0.0
  0
LINE
  8
0
 62
     250
 10
973.921
 20
327.394
 30
0.0
 11
974.182
 21
334.544
 31
0.0
  0
LINE
  8
0
 62
     250
 10
974.182
 20
334.544
 30
0.0
 11
974.393
 21
340.986
 31
0.0
  0
LINE
  8
0
 62
     250
 10
974.393
 20
340.986
 30
0.0
 11
974.549
 21
346.568
 31
0.0
  0
LINE
  8
0
 62
     250
 10
974.549
 20
346.568
 30
0.0
 11
974.647
 21
351.141
 31
0.0
  0
LINE
  8
0
 62
     250
 10
974.647
 20
351.141
 30
0.0
 11
974.683
 21
353.695
 31
0.0
  0
LINE
  8
0
 62
     250
 10
974.683
 20
353.695
 30
0.0
 11
974.683
 21
354.545
 31
0.0
  0
LINE
  8
0
 62
     250
 10
802.898
 20
8.17591
 30
0.0
 11
802.898
 21
8.17591
 31
0.0
  0
LINE
  8
0
 62
     250
 10
802.898
 20
8.17591
 30
0.0
 11
803.226
 21
8.14836
 31
0.0
  0
LINE
  8
0
 62
     250
 10
803.226
 20
8.14836
 30
0.0
 11
804.175
 21
8.06979
 31
0.0
  0
LINE
  8
0
 62
     250
 10
804.175
 20
8.06979
 30
0.0
 11
805.688
 21
7.94713
 31
0.0
  0
LINE
  8
0
 62
     250
 10
805.688
 20
7.94713
 30
0.0
 11
807.713
 21
7.78866
 31
0.0
  0
LINE
  8
0
 62
     250
 10
807.713
 20
7.78866
 30
0.0
 11
810.197
 21
7.60264
 31
0.0
  0
LINE
  8
0
 62
     250
 10
810.197
 20
7.60264
 30
0.0
 11
813.079
 21
7.39592
 31
0.0
  0
LINE
  8
0
 62
     250
 10
813.079
 20
7.39592
 30
0.0
 11
816.31
 21
7.17822
 31
0.0
  0
LINE
  8
0
 62
     250
 10
816.31
 20
7.17822
 30
0.0
 11
819.834
 21
6.95494
 31
0.0
  0
LINE
  8
0
 62
     250
 10
819.834
 20
6.95494
 30
0.0
 11
823.599
 21
6.73587
 31
0.0
  0
LINE
  8
0
 62
     250
 10
823.599
 20
6.73587
 30
0.0
 11
827.543
 21
6.52776
 31
0.0
  0
LINE
  8
0
 62
     250
 10
827.543
 20
6.52776
 30
0.0
 11
831.621
 21
6.33758
 31
0.0
  0
LINE
  8
0
 62
     250
 10
831.621
 20
6.33758
 30
0.0
 11
835.769
 21
6.17499
 31
0.0
  0
LINE
  8
0
 62
     250
 10
835.769
 20
6.17499
 30
0.0
 11
839.943
 21
6.04682
 31
0.0
  0
LINE
  8
0
 62
     250
 10
839.943
 20
6.04682
 30
0.0
 11
844.081
 21
5.96
 31
0.0
  0
LINE
  8
0
 62
     250
 10
844.081
 20
5.96
 30
0.0
 11
848.127
 21
5.92282
 31
0.0
  0
LINE
  8
0
 62
     250
 10
848.127
 20
5.92282
 30
0.0
 11
851.059
 21
5.93108
 31
0.0
  0
LINE
  8
0
 62
     250
 10
851.059
 20
5.93108
 30
0.0
 11
852.036
 21
5.94349
 31
0.0
  0
LINE
  8
0
 62
     250
 10
852.036
 20
5.94349
 30
0.0
 11
853.98
 21
5.97105
 31
0.0
  0
LINE
  8
0
 62
     250
 10
853.98
 20
5.97105
 30
0.0
 11
859.811
 21
6.15019
 31
0.0
  0
LINE
  8
0
 62
     250
 10
859.811
 20
6.15019
 30
0.0
 11
867.805
 21
6.53464
 31
0.0
  0
LINE
  8
0
 62
     250
 10
867.805
 20
6.53464
 30
0.0
 11
875.905
 21
7.05693
 31
0.0
  0
LINE
  8
0
 62
     250
 10
875.905
 20
7.05693
 30
0.0
 11
884.005
 21
7.67567
 31
0.0
  0
LINE
  8
0
 62
     250
 10
884.005
 20
7.67567
 30
0.0
 11
891.988
 21
8.3523
 31
0.0
  0
LINE
  8
0
 62
     250
 10
891.988
 20
8.3523
 30
0.0
 11
899.746
 21
9.04406
 31
0.0
  0
LINE
  8
0
 62
     250
 10
899.746
 20
9.04406
 30
0.0
 11
907.175
 21
9.71102
 31
0.0
  0
LINE
  8
0
 62
     250
 10
907.175
 20
9.71102
 30
0.0
 11
912.41
 21
10.1699
 31
0.0
  0
LINE
  8
0
 62
     250
 10
912.41
 20
10.1699
 30
0.0
 11
914.157
 21
10.3146
 31
0.0
  0
LINE
  8
0
 62
     250
 10
914.157
 20
10.3146
 30
0.0
 11
915.942
 21
10.4635
 31
0.0
  0
LINE
  8
0
 62
     250
 10
915.942
 20
10.4635
 30
0.0
 11
921.29
 21
10.9265
 31
0.0
  0
LINE
  8
0
 62
     250
 10
921.29
 20
10.9265
 30
0.0
 11
929.072
 21
11.6513
 31
0.0
  0
LINE
  8
0
 62
     250
 10
929.072
 20
11.6513
 30
0.0
 11
937.256
 21
12.4947
 31
0.0
  0
LINE
  8
0
 62
     250
 10
937.256
 20
12.4947
 30
0.0
 11
945.593
 21
13.4662
 31
0.0
  0
LINE
  8
0
 62
     250
 10
945.593
 20
13.4662
 30
0.0
 11
953.837
 21
14.5728
 31
0.0
  0
LINE
  8
0
 62
     250
 10
953.837
 20
14.5728
 30
0.0
 11
961.736
 21
15.8213
 31
0.0
  0
LINE
  8
0
 62
     250
 10
961.736
 20
15.8213
 30
0.0
 11
969.042
 21
17.2213
 31
0.0
  0
LINE
  8
0
 62
     250
 10
969.042
 20
17.2213
 30
0.0
 11
973.903
 21
18.3389
 31
0.0
  0
LINE
  8
0
 62
     250
 10
973.903
 20
18.3389
 30
0.0
 11
975.505
 21
18.7785
 31
0.0
  0
LINE
  8
0
 62
     250
 10
975.505
 20
18.7785
 30
0.0
 11
977.223
 21
19.2512
 31
0.0
  0
LINE
  8
0
 62
     250
 10
977.223
 20
19.2512
 30
0.0
 11
982.345
 21
20.7863
 31
0.0
  0
LINE
  8
0
 62
     250
 10
982.345
 20
20.7863
 30
0.0
 11
990.632
 21
23.4887
 31
0.0
  0
LINE
  8
0
 62
     250
 10
990.632
 20
23.4887
 30
0.0
 11
999.903
 21
26.8207
 31
0.0
  0
LINE
  8
0
 62
     250
 10
999.903
 20
26.8207
 30
0.0
 11
1009.68
 21
30.7192
 31
0.0
  0
LINE
  8
0
 62
     250
 10
1009.68
 20
30.7192
 30
0.0
 11
1019.5
 21
35.1179
 31
0.0
  0
LINE
  8
0
 62
     250
 10
1019.5
 20
35.1179
 30
0.0
 11
1028.89
 21
39.9549
 31
0.0
  0
LINE
  8
0
 62
     250
 10
1028.89
 20
39.9549
 30
0.0
 11
1037.38
 21
45.1637
 31
0.0
  0
LINE
  8
0
 62
     250
 10
1037.38
 20
45.1637
 30
0.0
 11
1042.84
 21
49.1793
 31
0.0
  0
LINE
  8
0
 62
     250
 10
1042.84
 20
49.1793
 30
0.0
 11
1044.51
 21
50.6815
 31
0.0
  0
LINE
  8
0
 62
     250
 10
1044.51
 20
50.6815
 30
0.0
 11
1046.07
 21
52.0859
 31
0.0
  0
LINE
  8
0
 62
     250
 10
1046.07
 20
52.0859
 30
0.0
 11
1050.49
 21
56.599
 31
0.0
  0
LINE
  8
0
 62
     250
 10
1050.49
 20
56.599
 30
0.0
 11
1055.85
 21
62.9613
 31
0.0
  0
LINE
  8
0
 62
     250
 10
1055.85
 20
62.9613
 30
0.0
 11
1060.6
 21
69.639
 31
0.0
  0
LINE
  8
0
 62
     250
 10
1060.6
 20
69.639
 30
0.0
 11
1064.74
 21
76.503
 31
0.0
  0
LINE
  8
0
 62
     250
 10
1064.74
 20
76.503
 30
0.0
 11
1068.27
 21
83.4249
 31
0.0
  0
LINE
  8
0
 62
     250
 10
1068.27
 20
83.4249
 30
0.0
 11
1071.19
 21
90.2727
 31
0.0
  0
LINE
  8
0
 62
     250
 10
1071.19
 20
90.2727
 30
0.0
 11
1073.51
 21
96.9186
 31
0.0
  0
LINE
  8
0
 62
     250
 10
1073.51
 20
96.9186
 30
0.0
 11
1074.86
 21
101.64
 31
0.0
  0
LINE
  8
0
 62
     250
 10
1074.86
 20
101.64
 30
0.0
 11
1075.23
 21
103.232
 31
0.0
  0
LINE
  8
0
 62
     250
 10
1075.23
 20
103.232
 30
0.0
 11
1075.64
 21
105.015
 31
0.0
  0
LINE
  8
0
 62
     250
 10
1075.64
 20
105.015
 30
0.0
 11
1076.66
 21
110.412
 31
0.0
  0
LINE
  8
0
 62
     250
 10
1076.66
 20
110.412
 30
0.0
 11
1078.12
 21
119.446
 31
0.0
  0
LINE
  8
0
 62
     250
 10
1078.12
 20
119.446
 30
0.0
 11
1079.56
 21
129.883
 31
0.0
  0
LINE
  8
0
 62
     250
 10
1079.56
 20
129.883
 30
0.0
 11
1080.96
 21
141.274
 31
0.0
  0
LINE
  8
0
 62
     250
 10
1080.96
 20
141.274
 30
0.0
 11
1082.29
 21
153.172
 31
0.0
  0
LINE
  8
0
 62
     250
 10
1082.29
 20
153.172
 30
0.0
 11
1083.53
 21
165.125
 31
0.0
  0
LINE
  8
0
 62
     250
 10
1083.53
 20
165.125
 30
0.0
 11
1084.64
 21
176.687
 31
0.0
  0
LINE
  8
0
 62
     250
 10
1084.64
 20
176.687
 30
0.0
 11
1085.37
 21
184.726
 31
0.0
  0
LINE
  8
0
 62
     250
 10
1085.37
 20
184.726
 30
0.0
 11
1085.6
 21
187.406
 31
0.0
  0
LINE
  8
0
 62
     250
 10
1085.6
 20
187.406
 30
0.0
 11
1085.73
 21
188.893
 31
0.0
  0
LINE
  8
0
 62
     250
 10
1085.73
 20
188.893
 30
0.0
 11
1086.04
 21
193.361
 31
0.0
  0
LINE
  8
0
 62
     250
 10
1086.04
 20
193.361
 30
0.0
 11
1086.48
 21
200.929
 31
0.0
  0
LINE
  8
0
 62
     250
 10
1086.48
 20
200.929
 30
0.0
 11
1086.92
 21
209.893
 31
0.0
  0
LINE
  8
0
 62
     250
 10
1086.92
 20
209.893
 30
0.0
 11
1087.35
 21
220.036
 31
0.0
  0
LINE
  8
0
 62
     250
 10
1087.35
 20
220.036
 30
0.0
 11
1087.78
 21
231.14
 31
0.0
  0
LINE
  8
0
 62
     250
 10
1087.78
 20
231.14
 30
0.0
 11
1088.19
 21
242.988
 31
0.0
  0
LINE
  8
0
 62
     250
 10
1088.19
 20
242.988
 30
0.0
 11
1088.58
 21
255.363
 31
0.0
  0
LINE
  8
0
 62
     250
 10
1088.58
 20
255.363
 30
0.0
 11
1088.94
 21
268.046
 31
0.0
  0
LINE
  8
0
 62
     250
 10
1088.94
 20
268.046
 30
0.0
 11
1089.28
 21
280.822
 31
0.0
  0
LINE
  8
0
 62
     250
 10
1089.28
 20
280.822
 30
0.0
 11
1089.59
 21
293.471
 31
0.0
  0
LINE
  8
0
 62
     250
 10
1089.59
 20
293.471
 30
0.0
 11
1089.86
 21
305.777
 31
0.0
  0
LINE
  8
0
 62
     250
 10
1089.86
 20
305.777
 30
0.0
 11
1090.1
 21
317.522
 31
0.0
  0
LINE
  8
0
 62
     250
 10
1090.1
 20
317.522
 30
0.0
 11
1090.28
 21
328.49
 31
0.0
  0
LINE
  8
0
 62
     250
 10
1090.28
 20
328.49
 30
0.0
 11
1090.43
 21
338.46
 31
0.0
  0
LINE
  8
0
 62
     250
 10
1090.43
 20
338.46
 30
0.0
 11
1090.51
 21
347.219
 31
0.0
  0
LINE
  8
0
 62
     250
 10
1090.51
 20
347.219
 30
0.0
 11
1090.54
 21
352.714
 31
0.0
  0
LINE
  8
0
 62
     250
 10
1090.54
 20
352.714
 30
0.0
 11
1090.54
 21
354.545
 31
0.0
  0
LINE
  8
0
 62
     250
 10
452.067
 20
354.545
 30
0.0
 11
452.067
 21
353.152
 31
0.0
  0
LINE
  8
0
 62
     250
 10
452.067
 20
353.152
 30
0.0
 11
452.092
 21
348.966
 31
0.0
  0
LINE
  8
0
 62
     250
 10
452.092
 20
348.966
 30
0.0
 11
452.162
 21
342.171
 31
0.0
  0
LINE
  8
0
 62
     250
 10
452.162
 20
342.171
 30
0.0
 11
452.279
 21
334.33
 31
0.0
  0
LINE
  8
0
 62
     250
 10
452.279
 20
334.33
 30
0.0
 11
452.438
 21
325.611
 31
0.0
  0
LINE
  8
0
 62
     250
 10
452.438
 20
325.611
 30
0.0
 11
452.639
 21
316.183
 31
0.0
  0
LINE
  8
0
 62
     250
 10
452.639
 20
316.183
 30
0.0
 11
452.871
 21
306.214
 31
0.0
  0
LINE
  8
0
 62
     250
 10
452.871
 20
306.214
 30
0.0
 11
453.143
 21
295.872
 31
0.0
  0
LINE
  8
0
 62
     250
 10
453.143
 20
295.872
 30
0.0
 11
453.446
 21
285.323
 31
0.0
  0
LINE
  8
0
 62
     250
 10
453.446
 20
285.323
 30
0.0
 11
453.778
 21
274.738
 31
0.0
  0
LINE
  8
0
 62
     250
 10
453.778
 20
274.738
 30
0.0
 11
454.138
 21
264.284
 31
0.0
  0
LINE
  8
0
 62
     250
 10
454.138
 20
264.284
 30
0.0
 11
454.522
 21
254.129
 31
0.0
  0
LINE
  8
0
 62
     250
 10
454.522
 20
254.129
 30
0.0
 11
454.928
 21
244.442
 31
0.0
  0
LINE
  8
0
 62
     250
 10
454.928
 20
244.442
 30
0.0
 11
455.355
 21
235.391
 31
0.0
  0
LINE
  8
0
 62
     250
 10
455.355
 20
235.391
 30
0.0
 11
455.796
 21
227.142
 31
0.0
  0
LINE
  8
0
 62
     250
 10
455.796
 20
227.142
 30
0.0
 11
456.251
 21
219.866
 31
0.0
  0
LINE
  8
0
 62
     250
 10
456.251
 20
219.866
 30
0.0
 11
456.586
 21
215.262
 31
0.0
  0
LINE
  8
0
 62
     250
 10
456.586
 20
215.262
 30
0.0
 11
456.72
 21
213.728
 31
0.0
  0
LINE
  8
0
 62
     250
 10
456.72
 20
213.728
 30
0.0
 11
456.84
 21
212.291
 31
0.0
  0
LINE
  8
0
 62
     250
 10
456.84
 20
212.291
 30
0.0
 11
457.264
 21
207.982
 31
0.0
  0
LINE
  8
0
 62
     250
 10
457.264
 20
207.982
 30
0.0
 11
457.948
 21
201.821
 31
0.0
  0
LINE
  8
0
 62
     250
 10
457.948
 20
201.821
 30
0.0
 11
458.756
 21
195.331
 31
0.0
  0
LINE
  8
0
 62
     250
 10
458.756
 20
195.331
 30
0.0
 11
459.677
 21
188.601
 31
0.0
  0
LINE
  8
0
 62
     250
 10
459.677
 20
188.601
 30
0.0
 11
460.7
 21
181.718
 31
0.0
  0
LINE
  8
0
 62
     250
 10
460.7
 20
181.718
 30
0.0
 11
461.811
 21
174.767
 31
0.0
  0
LINE
  8
0
 62
     250
 10
461.811
 20
174.767
 30
0.0
 11
463
 21
167.838
 31
0.0
  0
LINE
  8
0
 62
     250
 10
463
 20
167.838
 30
0.0
 11
464.252
 21
161.014
 31
0.0
  0
LINE
  8
0
 62
     250
 10
464.252
 20
161.014
 30
0.0
 11
465.557
 21
154.386
 31
0.0
  0
LINE
  8
0
 62
     250
 10
465.557
 20
154.386
 30
0.0
 11
466.901
 21
148.039
 31
0.0
  0
LINE
  8
0
 62
     250
 10
466.901
 20
148.039
 30
0.0
 11
468.277
 21
142.058
 31
0.0
  0
LINE
  8
0
 62
     250
 10
468.277
 20
142.058
 30
0.0
 11
469.664
 21
136.533
 31
0.0
  0
LINE
  8
0
 62
     250
 10
469.664
 20
136.533
 30
0.0
 11
471.057
 21
131.549
 31
0.0
  0
LINE
  8
0
 62
     250
 10
471.057
 20
131.549
 30
0.0
 11
472.44
 21
127.194
 31
0.0
  0
LINE
  8
0
 62
     250
 10
472.44
 20
127.194
 30
0.0
 11
473.802
 21
123.555
 31
0.0
  0
LINE
  8
0
 62
     250
 10
473.802
 20
123.555
 30
0.0
 11
474.758
 21
121.405
 31
0.0
  0
LINE
  8
0
 62
     250
 10
474.758
 20
121.405
 30
0.0
 11
475.132
 21
120.717
 31
0.0
  0
LINE
  8
0
 62
     250
 10
475.132
 20
120.717
 30
0.0
 11
475.848
 21
119.404
 31
0.0
  0
LINE
  8
0
 62
     250
 10
475.848
 20
119.404
 30
0.0
 11
478.335
 21
115.652
 31
0.0
  0
LINE
  8
0
 62
     250
 10
478.335
 20
115.652
 30
0.0
 11
482.66
 21
110.18
 31
0.0
  0
LINE
  8
0
 62
     250
 10
482.66
 20
110.18
 30
0.0
 11
488.029
 21
104.454
 31
0.0
  0
LINE
  8
0
 62
     250
 10
488.029
 20
104.454
 30
0.0
 11
494.369
 21
98.6289
 31
0.0
  0
LINE
  8
0
 62
     250
 10
494.369
 20
98.6289
 30
0.0
 11
501.597
 21
92.855
 31
0.0
  0
LINE
  8
0
 62
     250
 10
501.597
 20
92.855
 30
0.0
 11
509.637
 21
87.2878
 31
0.0
  0
LINE
  8
0
 62
     250
 10
509.637
 20
87.2878
 30
0.0
 11
518.418
 21
82.0773
 31
0.0
  0
LINE
  8
0
 62
     250
 10
518.418
 20
82.0773
 30
0.0
 11
525.452
 21
78.4585
 31
0.0
  0
LINE
  8
0
 62
     250
 10
525.452
 20
78.4585
 30
0.0
 11
527.854
 21
77.3755
 31
0.0
  0
LINE
  8
0
 62
     250
 10
527.854
 20
77.3755
 30
0.0
 11
529.117
 21
76.805
 31
0.0
  0
LINE
  8
0
 62
     250
 10
529.117
 20
76.805
 30
0.0
 11
532.941
 21
75.1459
 31
0.0
  0
LINE
  8
0
 62
     250
 10
532.941
 20
75.1459
 30
0.0
 11
538.416
 21
72.868
 31
0.0
  0
LINE
  8
0
 62
     250
 10
538.416
 20
72.868
 30
0.0
 11
544.223
 21
70.5693
 31
0.0
  0
LINE
  8
0
 62
     250
 10
544.223
 20
70.5693
 30
0.0
 11
550.291
 21
68.2748
 31
0.0
  0
LINE
  8
0
 62
     250
 10
550.291
 20
68.2748
 30
0.0
 11
556.563
 21
66.0135
 31
0.0
  0
LINE
  8
0
 62
     250
 10
556.563
 20
66.0135
 30
0.0
 11
562.97
 21
63.8087
 31
0.0
  0
LINE
  8
0
 62
     250
 10
562.97
 20
63.8087
 30
0.0
 11
569.454
 21
61.6892
 31
0.0
  0
LINE
  8
0
 62
     250
 10
569.454
 20
61.6892
 30
0.0
 11
575.949
 21
59.6801
 31
0.0
  0
LINE
  8
0
 62
     250
 10
575.949
 20
59.6801
 30
0.0
 11
582.39
 21
57.8086
 31
0.0
  0
LINE
  8
0
 62
     250
 10
582.39
 20
57.8086
 30
0.0
 11
588.716
 21
56.1012
 31
0.0
  0
LINE
  8
0
 62
     250
 10
588.716
 20
56.1012
 30
0.0
 11
594.861
 21
54.5842
 31
0.0
  0
LINE
  8
0
 62
     250
 10
594.861
 20
54.5842
 30
0.0
 11
600.766
 21
53.2832
 31
0.0
  0
LINE
  8
0
 62
     250
 10
600.766
 20
53.2832
 30
0.0
 11
606.365
 21
52.2249
 31
0.0
  0
LINE
  8
0
 62
     250
 10
606.365
 20
52.2249
 30
0.0
 11
611.597
 21
51.4368
 31
0.0
  0
LINE
  8
0
 62
     250
 10
611.597
 20
51.4368
 30
0.0
 11
616.395
 21
50.9446
 31
0.0
  0
LINE
  8
0
 62
     250
 10
616.395
 20
50.9446
 30
0.0
 11
619.622
 21
50.7739
 31
0.0
  0
LINE
  8
0
 62
     250
 10
619.622
 20
50.7739
 30
0.0
 11
620.698
 21
50.7739
 31
0.0
  0
LINE
  8
0
 62
     250
 10
620.698
 20
50.7739
 30
0.0
 11
622.734
 21
50.7739
 31
0.0
  0
LINE
  8
0
 62
     250
 10
622.734
 20
50.7739
 30
0.0
 11
628.837
 21
51.0632
 31
0.0
  0
LINE
  8
0
 62
     250
 10
628.837
 20
51.0632
 30
0.0
 11
637
 21
51.864
 31
0.0
  0
LINE
  8
0
 62
     250
 10
637
 20
51.864
 30
0.0
 11
645.015
 21
53.0793
 31
0.0
  0
LINE
  8
0
 62
     250
 10
645.015
 20
53.0793
 30
0.0
 11
652.706
 21
54.6118
 31
0.0
  0
LINE
  8
0
 62
     250
 10
652.706
 20
54.6118
 30
0.0
 11
659.896
 21
56.3605
 31
0.0
  0
LINE
  8
0
 62
     250
 10
659.896
 20
56.3605
 30
0.0
 11
666.408
 21
58.2306
 31
0.0
  0
LINE
  8
0
 62
     250
 10
666.408
 20
58.2306
 30
0.0
 11
672.073
 21
60.1211
 31
0.0
  0
LINE
  8
0
 62
     250
 10
672.073
 20
60.1211
 30
0.0
 11
675.569
 21
61.4454
 31
0.0
  0
LINE
  8
0
 62
     250
 10
675.569
 20
61.4454
 30
0.0
 11
676.716
 21
61.9347
 31
0.0
  0
LINE
  8
0
 62
     250
 10
676.716
 20
61.9347
 30
0.0
 11
677.795
 21
62.3976
 31
0.0
  0
LINE
  8
0
 62
     250
 10
677.795
 20
62.3976
 30
0.0
 11
680.875
 21
64.1586
 31
0.0
  0
LINE
  8
0
 62
     250
 10
680.875
 20
64.1586
 30
0.0
 11
685.165
 21
67.2402
 31
0.0
  0
LINE
  8
0
 62
     250
 10
685.165
 20
67.2402
 30
0.0
 11
689.518
 21
71.0226
 31
0.0
  0
LINE
  8
0
 62
     250
 10
689.518
 20
71.0226
 30
0.0
 11
693.868
 21
75.3526
 31
0.0
  0
LINE
  8
0
 62
     250
 10
693.868
 20
75.3526
 30
0.0
 11
698.147
 21
80.0735
 31
0.0
  0
LINE
  8
0
 62
     250
 10
698.147
 20
80.0735
 30
0.0
 11
702.282
 21
85.0332
 31
0.0
  0
LINE
  8
0
 62
     250
 10
702.282
 20
85.0332
 30
0.0
 11
706.212
 21
90.0769
 31
0.0
  0
LINE
  8
0
 62
     250
 10
706.212
 20
90.0769
 30
0.0
 11
708.963
 21
93.792
 31
0.0
  0
LINE
  8
0
 62
     250
 10
708.963
 20
93.792
 30
0.0
 11
709.859
 21
95.0461
 31
0.0
  0
LINE
  8
0
 62
     250
 10
709.859
 20
95.0461
 30
0.0
 11
711.532
 21
97.3847
 31
0.0
  0
LINE
  8
0
 62
     250
 10
711.532
 20
97.3847
 30
0.0
 11
716.689
 21
104.296
 31
0.0
  0
LINE
  8
0
 62
     250
 10
716.689
 20
104.296
 30
0.0
 11
723.357
 21
112.533
 31
0.0
  0
LINE
  8
0
 62
     250
 10
723.357
 20
112.533
 30
0.0
 11
730.056
 21
119.794
 31
0.0
  0
LINE
  8
0
 62
     250
 10
730.056
 20
119.794
 30
0.0
 11
735.189
 21
124.624
 31
0.0
  0
LINE
  8
0
 62
     250
 10
735.189
 20
124.624
 30
0.0
 11
736.999
 21
126.112
 31
0.0
  0
LINE
  8
0
 62
     250
 10
736.999
 20
126.112
 30
0.0
 11
737.902
 21
126.858
 31
0.0
  0
LINE
  8
0
 62
     250
 10
737.902
 20
126.858
 30
0.0
 11
740.833
 21
128.833
 31
0.0
  0
LINE
  8
0
 62
     250
 10
740.833
 20
128.833
 30
0.0
 11
745.271
 21
131.167
 31
0.0
  0
LINE
  8
0
 62
     250
 10
745.271
 20
131.167
 30
0.0
 11
750.38
 21
133.165
 31
0.0
  0
LINE
  8
0
 62
     250
 10
750.38
 20
133.165
 30
0.0
 11
756.236
 21
134.878
 31
0.0
  0
LINE
  8
0
 62
     250
 10
756.236
 20
134.878
 30
0.0
 11
762.907
 21
136.357
 31
0.0
  0
LINE
  8
0
 62
     250
 10
762.907
 20
136.357
 30
0.0
 11
770.467
 21
137.65
 31
0.0
  0
LINE
  8
0
 62
     250
 10
770.467
 20
137.65
 30
0.0
 11
778.993
 21
138.806
 31
0.0
  0
LINE
  8
0
 62
     250
 10
778.993
 20
138.806
 30
0.0
 11
786.162
 21
139.631
 31
0.0
  0
LINE
  8
0
 62
     250
 10
786.162
 20
139.631
 30
0.0
 11
788.557
 21
139.878
 31
0.0
  0
LINE
  8
0
 62
     250
 10
788.557
 20
139.878
 30
0.0
 11
791.097
 21
140.141
 31
0.0
  0
LINE
  8
0
 62
     250
 10
791.097
 20
140.141
 30
0.0
 11
798.731
 21
140.873
 31
0.0
  0
LINE
  8
0
 62
     250
 10
798.731
 20
140.873
 30
0.0
 11
808.902
 21
141.762
 31
0.0
  0
LINE
  8
0
 62
     250
 10
808.902
 20
141.762
 30
0.0
 11
818.847
 21
142.547
 31
0.0
  0
LINE
  8
0
 62
     250
 10
818.847
 20
142.547
 30
0.0
 11
828.34
 21
143.226
 31
0.0
  0
LINE
  8
0
 62
     250
 10
828.34
 20
143.226
 30
0.0
 11
837.159
 21
143.802
 31
0.0
  0
LINE
  8
0
 62
     250
 10
837.159
 20
143.802
 30
0.0
 11
845.086
 21
144.274
 31
0.0
  0
LINE
  8
0
 62
     250
 10
845.086
 20
144.274
 30
0.0
 11
851.895
 21
144.64
 31
0.0
  0
LINE
  8
0
 62
     250
 10
851.895
 20
144.64
 30
0.0
 11
855.998
 21
144.841
 31
0.0
  0
LINE
  8
0
 62
     250
 10
855.998
 20
144.841
 30
0.0
 11
857.366
 21
144.901
 31
0.0
  0
LINE
  8
0
 62
     250
 10
857.366
 20
144.901
 30
0.0
 11
858.651
 21
144.959
 31
0.0
  0
LINE
  8
0
 62
     250
 10
858.651
 20
144.959
 30
0.0
 11
862.506
 21
145.302
 31
0.0
  0
LINE
  8
0
 62
     250
 10
862.506
 20
145.302
 30
0.0
 11
868.221
 21
146.009
 31
0.0
  0
LINE
  8
0
 62
     250
 10
868.221
 20
146.009
 30
0.0
 11
874.123
 21
146.913
 31
0.0
  0
LINE
  8
0
 62
     250
 10
874.123
 20
146.913
 30
0.0
 11
879.824
 21
147.901
 31
0.0
  0
LINE
  8
0
 62
     250
 10
879.824
 20
147.901
 30
0.0
 11
884.936
 21
148.863
 31
0.0
  0
LINE
  8
0
 62
     250
 10
884.936
 20
148.863
 30
0.0
 11
889.063
 21
149.688
 31
0.0
  0
LINE
  8
0
 62
     250
 10
889.063
 20
149.688
 30
0.0
 11
891.829
 21
150.264
 31
0.0
  0
LINE
  8
0
 62
     250
 10
891.829
 20
150.264
 30
0.0
 11
892.838
 21
150.481
 31
0.0
  0
LINE
  8
0
 62
     250
 10
892.838
 20
150.481
 30
0.0
 11
892.838
 21
150.481
 31
0.0
  0
LINE
  8
0
 62
     250
 10
736.999
 20
126.112
 30
0.0
 11
736.999
 21
126.112
 31
0.0
  0
LINE
  8
0
 62
     250
 10
736.999
 20
126.112
 30
0.0
 11
736.145
 21
126.49
 31
0.0
  0
LINE
  8
0
 62
     250
 10
736.145
 20
126.49
 30
0.0
 11
733.767
 21
127.598
 31
0.0
  0
LINE
  8
0
 62
     250
 10
733.767
 20
127.598
 30
0.0
 11
730.119
 21
129.409
 31
0.0
  0
LINE
  8
0
 62
     250
 10
730.119
 20
129.409
 30
0.0
 11
725.456
 21
131.892
 31
0.0
  0
LINE
  8
0
 62
     250
 10
725.456
 20
131.892
 30
0.0
 11
720.037
 21
135.015
 31
0.0
  0
LINE
  8
0
 62
     250
 10
720.037
 20
135.015
 30
0.0
 11
714.121
 21
138.748
 31
0.0
  0
LINE
  8
0
 62
     250
 10
714.121
 20
138.748
 30
0.0
 11
707.961
 21
143.061
 31
0.0
  0
LINE
  8
0
 62
     250
 10
707.961
 20
143.061
 30
0.0
 11
703.308
 21
146.658
 31
0.0
  0
LINE
  8
0
 62
     250
 10
703.308
 20
146.658
 30
0.0
 11
701.816
 21
147.923
 31
0.0
  0
LINE
  8
0
 62
     250
 10
701.816
 20
147.923
 30
0.0
 11
700.349
 21
149.167
 31
0.0
  0
LINE
  8
0
 62
     250
 10
700.349
 20
149.167
 30
0.0
 11
696.069
 21
153.049
 31
0.0
  0
LINE
  8
0
 62
     250
 10
696.069
 20
153.049
 30
0.0
 11
690.898
 21
158.243
 31
0.0
  0
LINE
  8
0
 62
     250
 10
690.898
 20
158.243
 30
0.0
 11
686.248
 21
163.614
 31
0.0
  0
LINE
  8
0
 62
     250
 10
686.248
 20
163.614
 30
0.0
 11
682.064
 21
169.27
 31
0.0
  0
LINE
  8
0
 62
     250
 10
682.064
 20
169.27
 30
0.0
 11
678.296
 21
175.317
 31
0.0
  0
LINE
  8
0
 62
     250
 10
678.296
 20
175.317
 30
0.0
 11
674.892
 21
181.865
 31
0.0
  0
LINE
  8
0
 62
     250
 10
674.892
 20
181.865
 30
0.0
 11
671.798
 21
189.022
 31
0.0
  0
LINE
  8
0
 62
     250
 10
671.798
 20
189.022
 30
0.0
 11
669.618
 21
194.908
 31
0.0
  0
LINE
  8
0
 62
     250
 10
669.618
 20
194.908
 30
0.0
 11
668.962
 21
196.893
 31
0.0
  0
LINE
  8
0
 62
     250
 10
668.962
 20
196.893
 30
0.0
 11
668.602
 21
197.987
 31
0.0
  0
LINE
  8
0
 62
     250
 10
668.602
 20
197.987
 30
0.0
 11
667.611
 21
201.297
 31
0.0
  0
LINE
  8
0
 62
     250
 10
667.611
 20
201.297
 30
0.0
 11
666.284
 21
206.192
 31
0.0
  0
LINE
  8
0
 62
     250
 10
666.284
 20
206.192
 30
0.0
 11
664.99
 21
211.503
 31
0.0
  0
LINE
  8
0
 62
     250
 10
664.99
 20
211.503
 30
0.0
 11
663.734
 21
217.156
 31
0.0
  0
LINE
  8
0
 62
     250
 10
663.734
 20
217.156
 30
0.0
 11
662.517
 21
223.077
 31
0.0
  0
LINE
  8
0
 62
     250
 10
662.517
 20
223.077
 30
0.0
 11
661.352
 21
229.19
 31
0.0
  0
LINE
  8
0
 62
     250
 10
661.352
 20
229.19
 30
0.0
 11
660.238
 21
235.421
 31
0.0
  0
LINE
  8
0
 62
     250
 10
660.238
 20
235.421
 30
0.0
 11
659.186
 21
241.695
 31
0.0
  0
LINE
  8
0
 62
     250
 10
659.186
 20
241.695
 30
0.0
 11
658.195
 21
247.939
 31
0.0
  0
LINE
  8
0
 62
     250
 10
658.195
 20
247.939
 30
0.0
 11
657.278
 21
254.077
 31
0.0
  0
LINE
  8
0
 62
     250
 10
657.278
 20
254.077
 30
0.0
 11
656.435
 21
260.034
 31
0.0
  0
LINE
  8
0
 62
     250
 10
656.435
 20
260.034
 30
0.0
 11
655.673
 21
265.738
 31
0.0
  0
LINE
  8
0
 62
     250
 10
655.673
 20
265.738
 30
0.0
 11
654.999
 21
271.111
 31
0.0
  0
LINE
  8
0
 62
     250
 10
654.999
 20
271.111
 30
0.0
 11
654.417
 21
276.08
 31
0.0
  0
LINE
  8
0
 62
     250
 10
654.417
 20
276.08
 30
0.0
 11
653.934
 21
280.571
 31
0.0
  0
LINE
  8
0
 62
     250
 10
653.934
 20
280.571
 30
0.0
 11
653.641
 21
283.524
 31
0.0
  0
LINE
  8
0
 62
     250
 10
653.641
 20
283.524
 30
0.0
 11
653.553
 21
284.508
 31
0.0
  0
LINE
  8
0
 62
     250
 10
653.553
 20
284.508
 30
0.0
 11
653.369
 21
286.538
 31
0.0
  0
LINE
  8
0
 62
     250
 10
653.369
 20
286.538
 30
0.0
 11
652.939
 21
292.635
 31
0.0
  0
LINE
  8
0
 62
     250
 10
652.939
 20
292.635
 30
0.0
 11
652.406
 21
302.084
 31
0.0
  0
LINE
  8
0
 62
     250
 10
652.406
 20
302.084
 30
0.0
 11
651.958
 21
312.286
 31
0.0
  0
LINE
  8
0
 62
     250
 10
651.958
 20
312.286
 30
0.0
 11
651.588
 21
322.666
 31
0.0
  0
LINE
  8
0
 62
     250
 10
651.588
 20
322.666
 30
0.0
 11
651.302
 21
332.656
 31
0.0
  0
LINE
  8
0
 62
     250
 10
651.302
 20
332.656
 30
0.0
 11
651.097
 21
341.68
 31
0.0
  0
LINE
  8
0
 62
     250
 10
651.097
 20
341.68
 30
0.0
 11
650.977
 21
349.167
 31
0.0
  0
LINE
  8
0
 62
     250
 10
650.977
 20
349.167
 30
0.0
 11
650.935
 21
353.201
 31
0.0
  0
LINE
  8
0
 62
     250
 10
650.935
 20
353.201
 30
0.0
 11
650.935
 21
354.545
 31
0.0
  0
LINE
  8
0
 62
     250
 10
473.146
 20
124.485
 30
0.0
 11
473.146
 21
124.485
 31
0.0
  0
LINE
  8
0
 62
     250
 10
473.146
 20
124.485
 30
0.0
 11
472.659
 21
124.316
 31
0.0
  0
LINE
  8
0
 62
     250
 10
472.659
 20
124.316
 30
0.0
 11
471.265
 21
123.862
 31
0.0
  0
LINE
  8
0
 62
     250
 10
471.265
 20
123.862
 30
0.0
 11
469.036
 21
123.205
 31
0.0
  0
LINE
  8
0
 62
     250
 10
469.036
 20
123.205
 30
0.0
 11
466.058
 21
122.428
 31
0.0
  0
LINE
  8
0
 62
     250
 10
466.058
 20
122.428
 30
0.0
 11
462.411
 21
121.611
 31
0.0
  0
LINE
  8
0
 62
     250
 10
462.411
 20
121.611
 30
0.0
 11
458.181
 21
120.836
 31
0.0
  0
LINE
  8
0
 62
     250
 10
458.181
 20
120.836
 30
0.0
 11
453.446
 21
120.186
 31
0.0
  0
LINE
  8
0
 62
     250
 10
453.446
 20
120.186
 30
0.0
 11
449.576
 21
119.816
 31
0.0
  0
LINE
  8
0
 62
     250
 10
449.576
 20
119.816
 30
0.0
 11
448.285
 21
119.741
 31
0.0
  0
LINE
  8
0
 62
     250
 10
448.285
 20
119.741
 30
0.0
 11
446.938
 21
119.662
 31
0.0
  0
LINE
  8
0
 62
     250
 10
446.938
 20
119.662
 30
0.0
 11
442.853
 21
119.983
 31
0.0
  0
LINE
  8
0
 62
     250
 10
442.853
 20
119.983
 30
0.0
 11
437.339
 21
121.23
 31
0.0
  0
LINE
  8
0
 62
     250
 10
437.339
 20
121.23
 30
0.0
 11
431.899
 21
123.325
 31
0.0
  0
LINE
  8
0
 62
     250
 10
431.899
 20
123.325
 30
0.0
 11
426.681
 21
126.107
 31
0.0
  0
LINE
  8
0
 62
     250
 10
426.681
 20
126.107
 30
0.0
 11
421.838
 21
129.42
 31
0.0
  0
LINE
  8
0
 62
     250
 10
421.838
 20
129.42
 30
0.0
 11
417.52
 21
133.102
 31
0.0
  0
LINE
  8
0
 62
     250
 10
417.52
 20
133.102
 30
0.0
 11
413.879
 21
136.998
 31
0.0
  0
LINE
  8
0
 62
     250
 10
413.879
 20
136.998
 30
0.0
 11
411.692
 21
139.911
 31
0.0
  0
LINE
  8
0
 62
     250
 10
411.692
 20
139.911
 30
0.0
 11
411.071
 21
140.947
 31
0.0
  0
LINE
  8
0
 62
     250
 10
411.071
 20
140.947
 30
0.0
 11
410.485
 21
141.93
 31
0.0
  0
LINE
  8
0
 62
     250
 10
410.485
 20
141.93
 30
0.0
 11
408.852
 21
144.955
 31
0.0
  0
LINE
  8
0
 62
     250
 10
408.852
 20
144.955
 30
0.0
 11
406.89
 21
149.169
 31
0.0
  0
LINE
  8
0
 62
     250
 10
406.89
 20
149.169
 30
0.0
 11
405.197
 21
153.654
 31
0.0
  0
LINE
  8
0
 62
     250
 10
405.197
 20
153.654
 30
0.0
 11
403.786
 21
158.474
 31
0.0
  0
LINE
  8
0
 62
     250
 10
403.786
 20
158.474
 30
0.0
 11
402.664
 21
163.695
 31
0.0
  0
LINE
  8
0
 62
     250
 10
402.664
 20
163.695
 30
0.0
 11
401.853
 21
169.376
 31
0.0
  0
LINE
  8
0
 62
     250
 10
401.853
 20
169.376
 30
0.0
 11
401.355
 21
175.586
 31
0.0
  0
LINE
  8
0
 62
     250
 10
401.355
 20
175.586
 30
0.0
 11
401.186
 21
180.684
 31
0.0
  0
LINE
  8
0
 62
     250
 10
401.186
 20
180.684
 30
0.0
 11
401.186
 21
182.383
 31
0.0
  0
LINE
  8
0
 62
     250
 10
401.186
 20
182.383
 30
0.0
 11
401.186
 21
184.253
 31
0.0
  0
LINE
  8
0
 62
     250
 10
401.186
 20
184.253
 30
0.0
 11
401.673
 21
189.863
 31
0.0
  0
LINE
  8
0
 62
     250
 10
401.673
 20
189.863
 30
0.0
 11
402.989
 21
197.901
 31
0.0
  0
LINE
  8
0
 62
     250
 10
402.989
 20
197.901
 30
0.0
 11
404.911
 21
206.247
 31
0.0
  0
LINE
  8
0
 62
     250
 10
404.911
 20
206.247
 30
0.0
 11
407.218
 21
214.647
 31
0.0
  0
LINE
  8
0
 62
     250
 10
407.218
 20
214.647
 30
0.0
 11
409.688
 21
222.852
 31
0.0
  0
LINE
  8
0
 62
     250
 10
409.688
 20
222.852
 30
0.0
 11
412.101
 21
230.609
 31
0.0
  0
LINE
  8
0
 62
     250
 10
412.101
 20
230.609
 30
0.0
 11
414.235
 21
237.666
 31
0.0
  0
LINE
  8
0
 62
     250
 10
414.235
 20
237.666
 30
0.0
 11
415.505
 21
242.234
 31
0.0
  0
LINE
  8
0
 62
     250
 10
415.505
 20
242.234
 30
0.0
 11
415.869
 21
243.771
 31
0.0
  0
LINE
  8
0
 62
     250
 10
415.869
 20
243.771
 30
0.0
 11
416.059
 21
244.588
 31
0.0
  0
LINE
  8
0
 62
     250
 10
416.059
 20
244.588
 30
0.0
 11
416.5
 21
247.072
 31
0.0
  0
LINE
  8
0
 62
     250
 10
416.5
 20
247.072
 30
0.0
 11
417.096
 21
251.358
 31
0.0
  0
LINE
  8
0
 62
     250
 10
417.096
 20
251.358
 30
0.0
 11
417.647
 21
256.521
 31
0.0
  0
LINE
  8
0
 62
     250
 10
417.647
 20
256.521
 30
0.0
 11
418.158
 21
262.453
 31
0.0
  0
LINE
  8
0
 62
     250
 10
418.158
 20
262.453
 30
0.0
 11
418.627
 21
269.048
 31
0.0
  0
LINE
  8
0
 62
     250
 10
418.627
 20
269.048
 30
0.0
 11
419.058
 21
276.197
 31
0.0
  0
LINE
  8
0
 62
     250
 10
419.058
 20
276.197
 30
0.0
 11
419.446
 21
283.793
 31
0.0
  0
LINE
  8
0
 62
     250
 10
419.446
 20
283.793
 30
0.0
 11
419.791
 21
291.729
 31
0.0
  0
LINE
  8
0
 62
     250
 10
419.791
 20
291.729
 30
0.0
 11
420.102
 21
299.898
 31
0.0
  0
LINE
  8
0
 62
     250
 10
420.102
 20
299.898
 30
0.0
 11
420.366
 21
308.191
 31
0.0
  0
LINE
  8
0
 62
     250
 10
420.366
 20
308.191
 30
0.0
 11
420.592
 21
316.501
 31
0.0
  0
LINE
  8
0
 62
     250
 10
420.592
 20
316.501
 30
0.0
 11
420.776
 21
324.721
 31
0.0
  0
LINE
  8
0
 62
     250
 10
420.776
 20
324.721
 30
0.0
 11
420.917
 21
332.742
 31
0.0
  0
LINE
  8
0
 62
     250
 10
420.917
 20
332.742
 30
0.0
 11
421.019
 21
340.459
 31
0.0
  0
LINE
  8
0
 62
     250
 10
421.019
 20
340.459
 30
0.0
 11
421.083
 21
347.763
 31
0.0
  0
LINE
  8
0
 62
     250
 10
421.083
 20
347.763
 30
0.0
 11
421.104
 21
352.852
 31
0.0
  0
LINE
  8
0
 62
     250
 10
421.104
 20
352.852
 30
0.0
 11
421.104
 21
354.545
 31
0.0
  0
LINE
  8
0
 62
     250
 10
819.471
 20
139.49
 30
0.0
 11
784.92
 21
139.49
 31
0.0
  0
LINE
  8
0
 62
     250
 10
906.501
 20
354.545
 30
0.0
 11
906.501
 21
355.071
 31
0.0
  0
LINE
  8
0
 62
     250
 10
906.501
 20
355.071
 30
0.0
 11
906.48
 21
356.641
 31
0.0
  0
LINE
  8
0
 62
     250
 10
906.48
 20
356.641
 30
0.0
 11
906.427
 21
359.759
 31
0.0
  0
LINE
  8
0
 62
     250
 10
906.427
 20
359.759
 30
0.0
 11
906.335
 21
363.802
 31
0.0
  0
LINE
  8
0
 62
     250
 10
906.335
 20
363.802
 30
0.0
 11
906.216
 21
368.653
 31
0.0
  0
LINE
  8
0
 62
     250
 10
906.216
 20
368.653
 30
0.0
 11
906.067
 21
374.209
 31
0.0
  0
LINE
  8
0
 62
     250
 10
906.067
 20
374.209
 30
0.0
 11
905.888
 21
380.365
 31
0.0
  0
LINE
  8
0
 62
     250
 10
905.888
 20
380.365
 30
0.0
 11
905.683
 21
387.004
 31
0.0
  0
LINE
  8
0
 62
     250
 10
905.683
 20
387.004
 30
0.0
 11
905.461
 21
394.021
 31
0.0
  0
LINE
  8
0
 62
     250
 10
905.461
 20
394.021
 30
0.0
 11
905.214
 21
401.316
 31
0.0
  0
LINE
  8
0
 62
     250
 10
905.214
 20
401.316
 30
0.0
 11
904.949
 21
408.771
 31
0.0
  0
LINE
  8
0
 62
     250
 10
904.949
 20
408.771
 30
0.0
 11
904.667
 21
416.285
 31
0.0
  0
LINE
  8
0
 62
     250
 10
904.667
 20
416.285
 30
0.0
 11
904.374
 21
423.743
 31
0.0
  0
LINE
  8
0
 62
     250
 10
904.374
 20
423.743
 30
0.0
 11
904.071
 21
431.045
 31
0.0
  0
LINE
  8
0
 62
     250
 10
904.071
 20
431.045
 30
0.0
 11
903.757
 21
438.076
 31
0.0
  0
LINE
  8
0
 62
     250
 10
903.757
 20
438.076
 30
0.0
 11
903.436
 21
444.733
 31
0.0
  0
LINE
  8
0
 62
     250
 10
903.436
 20
444.733
 30
0.0
 11
903.196
 21
449.361
 31
0.0
  0
LINE
  8
0
 62
     250
 10
903.196
 20
449.361
 30
0.0
 11
903.111
 21
450.903
 31
0.0
  0
LINE
  8
0
 62
     250
 10
903.111
 20
450.903
 30
0.0
 11
902.945
 21
453.873
 31
0.0
  0
LINE
  8
0
 62
     250
 10
902.945
 20
453.873
 30
0.0
 11
902.374
 21
462.781
 31
0.0
  0
LINE
  8
0
 62
     250
 10
902.374
 20
462.781
 30
0.0
 11
901.506
 21
474.652
 31
0.0
  0
LINE
  8
0
 62
     250
 10
901.506
 20
474.652
 30
0.0
 11
900.564
 21
486.251
 31
0.0
  0
LINE
  8
0
 62
     250
 10
900.564
 20
486.251
 30
0.0
 11
899.597
 21
497.314
 31
0.0
  0
LINE
  8
0
 62
     250
 10
899.597
 20
497.314
 30
0.0
 11
898.656
 21
507.577
 31
0.0
  0
LINE
  8
0
 62
     250
 10
898.656
 20
507.577
 30
0.0
 11
897.795
 21
516.774
 31
0.0
  0
LINE
  8
0
 62
     250
 10
897.795
 20
516.774
 30
0.0
 11
897.065
 21
524.633
 31
0.0
  0
LINE
  8
0
 62
     250
 10
897.065
 20
524.633
 30
0.0
 11
896.645
 21
529.325
 31
0.0
  0
LINE
  8
0
 62
     250
 10
896.645
 20
529.325
 30
0.0
 11
896.518
 21
530.892
 31
0.0
  0
LINE
  8
0
 62
     250
 10
896.518
 20
530.892
 30
0.0
 11
896.401
 21
532.342
 31
0.0
  0
LINE
  8
0
 62
     250
 10
896.401
 20
532.342
 30
0.0
 11
895.974
 21
536.684
 31
0.0
  0
LINE
  8
0
 62
     250
 10
895.974
 20
536.684
 30
0.0
 11
895.269
 21
543.038
 31
0.0
  0
LINE
  8
0
 62
     250
 10
895.269
 20
543.038
 30
0.0
 11
894.475
 21
549.547
 31
0.0
  0
LINE
  8
0
 62
     250
 10
894.475
 20
549.547
 30
0.0
 11
893.66
 21
555.798
 31
0.0
  0
LINE
  8
0
 62
     250
 10
893.66
 20
555.798
 30
0.0
 11
892.898
 21
561.375
 31
0.0
  0
LINE
  8
0
 62
     250
 10
892.898
 20
561.375
 30
0.0
 11
892.267
 21
565.87
 31
0.0
  0
LINE
  8
0
 62
     250
 10
892.267
 20
565.87
 30
0.0
 11
891.833
 21
568.868
 31
0.0
  0
LINE
  8
0
 62
     250
 10
891.833
 20
568.868
 30
0.0
 11
891.674
 21
569.958
 31
0.0
  0
LINE
  8
0
 62
     250
 10
891.674
 20
569.958
 30
0.0
 11
891.674
 21
569.958
 31
0.0
  0
LINE
  8
0
 62
     250
 10
891.674
 20
569.958
 30
0.0
 11
891.674
 21
569.958
 31
0.0
  0
LINE
  8
0
 62
     250
 10
891.674
 20
569.958
 30
0.0
 11
892.715
 21
570.114
 31
0.0
  0
LINE
  8
0
 62
     250
 10
892.715
 20
570.114
 30
0.0
 11
895.512
 21
570.537
 31
0.0
  0
LINE
  8
0
 62
     250
 10
895.512
 20
570.537
 30
0.0
 11
899.59
 21
571.154
 31
0.0
  0
LINE
  8
0
 62
     250
 10
899.59
 20
571.154
 30
0.0
 11
904.452
 21
571.888
 31
0.0
  0
LINE
  8
0
 62
     250
 10
904.452
 20
571.888
 30
0.0
 11
909.623
 21
572.664
 31
0.0
  0
LINE
  8
0
 62
     250
 10
909.623
 20
572.664
 30
0.0
 11
914.608
 21
573.412
 31
0.0
  0
LINE
  8
0
 62
     250
 10
914.608
 20
573.412
 30
0.0
 11
918.933
 21
574.054
 31
0.0
  0
LINE
  8
0
 62
     250
 10
918.933
 20
574.054
 30
0.0
 11
921.311
 21
574.403
 31
0.0
  0
LINE
  8
0
 62
     250
 10
921.311
 20
574.403
 30
0.0
 11
922.105
 21
574.516
 31
0.0
  0
LINE
  8
0
 62
     250
 10
922.105
 20
574.516
 30
0.0
 11
922.729
 21
574.604
 31
0.0
  0
LINE
  8
0
 62
     250
 10
922.729
 20
574.604
 30
0.0
 11
924.602
 21
574.897
 31
0.0
  0
LINE
  8
0
 62
     250
 10
924.602
 20
574.897
 30
0.0
 11
927.153
 21
575.331
 31
0.0
  0
LINE
  8
0
 62
     250
 10
927.153
 20
575.331
 30
0.0
 11
929.633
 21
575.779
 31
0.0
  0
LINE
  8
0
 62
     250
 10
929.633
 20
575.779
 30
0.0
 11
931.93
 21
576.213
 31
0.0
  0
LINE
  8
0
 62
     250
 10
931.93
 20
576.213
 30
0.0
 11
933.919
 21
576.605
 31
0.0
  0
LINE
  8
0
 62
     250
 10
933.919
 20
576.605
 30
0.0
 11
935.486
 21
576.922
 31
0.0
  0
LINE
  8
0
 62
     250
 10
935.486
 20
576.922
 30
0.0
 11
936.516
 21
577.134
 31
0.0
  0
LINE
  8
0
 62
     250
 10
936.516
 20
577.134
 30
0.0
 11
936.883
 21
577.211
 31
0.0
  0
LINE
  8
0
 62
     250
 10
936.883
 20
577.211
 30
0.0
 11
936.883
 21
577.211
 31
0.0
  0
LINE
  8
0
 62
     250
 10
936.883
 20
577.211
 30
0.0
 11
936.883
 21
577.211
 31
0.0
  0
LINE
  8
0
 62
     250
 10
936.883
 20
577.211
 30
0.0
 11
937.419
 21
577.413
 31
0.0
  0
LINE
  8
0
 62
     250
 10
937.419
 20
577.413
 30
0.0
 11
938.915
 21
577.97
 31
0.0
  0
LINE
  8
0
 62
     250
 10
938.915
 20
577.97
 30
0.0
 11
941.211
 21
578.82
 31
0.0
  0
LINE
  8
0
 62
     250
 10
941.211
 20
578.82
 30
0.0
 11
944.153
 21
579.91
 31
0.0
  0
LINE
  8
0
 62
     250
 10
944.153
 20
579.91
 30
0.0
 11
947.575
 21
581.173
 31
0.0
  0
LINE
  8
0
 62
     250
 10
947.575
 20
581.173
 30
0.0
 11
951.315
 21
582.549
 31
0.0
  0
LINE
  8
0
 62
     250
 10
951.315
 20
582.549
 30
0.0
 11
955.22
 21
583.978
 31
0.0
  0
LINE
  8
0
 62
     250
 10
955.22
 20
583.978
 30
0.0
 11
958.148
 21
585.043
 31
0.0
  0
LINE
  8
0
 62
     250
 10
958.148
 20
585.043
 30
0.0
 11
959.125
 21
585.396
 31
0.0
  0
LINE
  8
0
 62
     250
 10
959.125
 20
585.396
 30
0.0
 11
961.118
 21
586.119
 31
0.0
  0
LINE
  8
0
 62
     250
 10
961.118
 20
586.119
 30
0.0
 11
967.264
 21
587.809
 31
0.0
  0
LINE
  8
0
 62
     250
 10
967.264
 20
587.809
 30
0.0
 11
975.744
 21
589.478
 31
0.0
  0
LINE
  8
0
 62
     250
 10
975.744
 20
589.478
 30
0.0
 11
983.795
 21
590.434
 31
0.0
  0
LINE
  8
0
 62
     250
 10
983.795
 20
590.434
 30
0.0
 11
988.917
 21
590.719
 31
0.0
  0
LINE
  8
0
 62
     250
 10
988.917
 20
590.719
 30
0.0
 11
990.625
 21
590.698
 31
0.0
  0
LINE
  8
0
 62
     250
 10
990.625
 20
590.698
 30
0.0
 11
991.394
 21
590.691
 31
0.0
  0
LINE
  8
0
 62
     250
 10
991.394
 20
590.691
 30
0.0
 11
993.708
 21
590.585
 31
0.0
  0
LINE
  8
0
 62
     250
 10
993.708
 20
590.585
 30
0.0
 11
997.028
 21
590.296
 31
0.0
  0
LINE
  8
0
 62
     250
 10
997.028
 20
590.296
 30
0.0
 11
1000.62
 21
589.802
 31
0.0
  0
LINE
  8
0
 62
     250
 10
1000.62
 20
589.802
 30
0.0
 11
1004.51
 21
589.072
 31
0.0
  0
LINE
  8
0
 62
     250
 10
1004.51
 20
589.072
 30
0.0
 11
1008.73
 21
588.081
 31
0.0
  0
LINE
  8
0
 62
     250
 10
1008.73
 20
588.081
 30
0.0
 11
1013.33
 21
586.804
 31
0.0
  0
LINE
  8
0
 62
     250
 10
1013.33
 20
586.804
 30
0.0
 11
1018.33
 21
585.202
 31
0.0
  0
LINE
  8
0
 62
     250
 10
1018.33
 20
585.202
 30
0.0
 11
1022.42
 21
583.766
 31
0.0
  0
LINE
  8
0
 62
     250
 10
1022.42
 20
583.766
 30
0.0
 11
1023.77
 21
583.258
 31
0.0
  0
LINE
  8
0
 62
     250
 10
1023.77
 20
583.258
 30
0.0
 11
1025.27
 21
582.694
 31
0.0
  0
LINE
  8
0
 62
     250
 10
1025.27
 20
582.694
 30
0.0
 11
1029.77
 21
580.926
 31
0.0
  0
LINE
  8
0
 62
     250
 10
1029.77
 20
580.926
 30
0.0
 11
1036.2
 21
578.287
 31
0.0
  0
LINE
  8
0
 62
     250
 10
1036.2
 20
578.287
 30
0.0
 11
1042.76
 21
575.497
 31
0.0
  0
LINE
  8
0
 62
     250
 10
1042.76
 20
575.497
 30
0.0
 11
1049.11
 21
572.714
 31
0.0
  0
LINE
  8
0
 62
     250
 10
1049.11
 20
572.714
 30
0.0
 11
1054.94
 21
570.089
 31
0.0
  0
LINE
  8
0
 62
     250
 10
1054.94
 20
570.089
 30
0.0
 11
1059.91
 21
567.785
 31
0.0
  0
LINE
  8
0
 62
     250
 10
1059.91
 20
567.785
 30
0.0
 11
1063.71
 21
565.954
 31
0.0
  0
LINE
  8
0
 62
     250
 10
1063.71
 20
565.954
 30
0.0
 11
1065.46
 21
565.076
 31
0.0
  0
LINE
  8
0
 62
     250
 10
1065.46
 20
565.076
 30
0.0
 11
1066.02
 21
564.748
 31
0.0
  0
LINE
  8
0
 62
     250
 10
1066.02
 20
564.748
 30
0.0
 11
1066.47
 21
564.49
 31
0.0
  0
LINE
  8
0
 62
     250
 10
1066.47
 20
564.49
 30
0.0
 11
1067.83
 21
563.718
 31
0.0
  0
LINE
  8
0
 62
     250
 10
1067.83
 20
563.718
 30
0.0
 11
1070.17
 21
562.384
 31
0.0
  0
LINE
  8
0
 62
     250
 10
1070.17
 20
562.384
 30
0.0
 11
1072.81
 21
560.885
 31
0.0
  0
LINE
  8
0
 62
     250
 10
1072.81
 20
560.885
 30
0.0
 11
1075.52
 21
559.354
 31
0.0
  0
LINE
  8
0
 62
     250
 10
1075.52
 20
559.354
 30
0.0
 11
1078.04
 21
557.929
 31
0.0
  0
LINE
  8
0
 62
     250
 10
1078.04
 20
557.929
 30
0.0
 11
1080.14
 21
556.743
 31
0.0
  0
LINE
  8
0
 62
     250
 10
1080.14
 20
556.743
 30
0.0
 11
1081.58
 21
555.935
 31
0.0
  0
LINE
  8
0
 62
     250
 10
1081.58
 20
555.935
 30
0.0
 11
1082.11
 21
555.632
 31
0.0
  0
LINE
  8
0
 62
     250
 10
1082.11
 20
555.632
 30
0.0
 11
1082.11
 21
555.632
 31
0.0
  0
LINE
  8
0
 62
     250
 10
892.256
 20
563.259
 30
0.0
 11
892.256
 21
563.259
 31
0.0
  0
LINE
  8
0
 62
     250
 10
892.256
 20
563.259
 30
0.0
 11
891.949
 21
563.259
 31
0.0
  0
LINE
  8
0
 62
     250
 10
891.949
 20
563.259
 30
0.0
 11
891.06
 21
563.252
 31
0.0
  0
LINE
  8
0
 62
     250
 10
891.06
 20
563.252
 30
0.0
 11
889.628
 21
563.249
 31
0.0
  0
LINE
  8
0
 62
     250
 10
889.628
 20
563.249
 30
0.0
 11
887.702
 21
563.252
 31
0.0
  0
LINE
  8
0
 62
     250
 10
887.702
 20
563.252
 30
0.0
 11
885.321
 21
563.273
 31
0.0
  0
LINE
  8
0
 62
     250
 10
885.321
 20
563.273
 30
0.0
 11
882.534
 21
563.312
 31
0.0
  0
LINE
  8
0
 62
     250
 10
882.534
 20
563.312
 30
0.0
 11
879.38
 21
563.376
 31
0.0
  0
LINE
  8
0
 62
     250
 10
879.38
 20
563.376
 30
0.0
 11
875.898
 21
563.471
 31
0.0
  0
LINE
  8
0
 62
     250
 10
875.898
 20
563.471
 30
0.0
 11
872.141
 21
563.605
 31
0.0
  0
LINE
  8
0
 62
     250
 10
872.141
 20
563.605
 30
0.0
 11
868.147
 21
563.778
 31
0.0
  0
LINE
  8
0
 62
     250
 10
868.147
 20
563.778
 30
0.0
 11
863.963
 21
564.003
 31
0.0
  0
LINE
  8
0
 62
     250
 10
863.963
 20
564.003
 30
0.0
 11
859.628
 21
564.282
 31
0.0
  0
LINE
  8
0
 62
     250
 10
859.628
 20
564.282
 30
0.0
 11
855.186
 21
564.621
 31
0.0
  0
LINE
  8
0
 62
     250
 10
855.186
 20
564.621
 30
0.0
 11
850.681
 21
565.023
 31
0.0
  0
LINE
  8
0
 62
     250
 10
850.681
 20
565.023
 30
0.0
 11
846.162
 21
565.499
 31
0.0
  0
LINE
  8
0
 62
     250
 10
846.162
 20
565.499
 30
0.0
 11
842.786
 21
565.901
 31
0.0
  0
LINE
  8
0
 62
     250
 10
842.786
 20
565.901
 30
0.0
 11
841.664
 21
566.05
 31
0.0
  0
LINE
  8
0
 62
     250
 10
841.664
 20
566.05
 30
0.0
 11
839.495
 21
566.339
 31
0.0
  0
LINE
  8
0
 62
     250
 10
839.495
 20
566.339
 30
0.0
 11
833.004
 21
567.284
 31
0.0
  0
LINE
  8
0
 62
     250
 10
833.004
 20
567.284
 30
0.0
 11
824.964
 21
568.604
 31
0.0
  0
LINE
  8
0
 62
     250
 10
824.964
 20
568.604
 30
0.0
 11
817.644
 21
569.983
 31
0.0
  0
LINE
  8
0
 62
     250
 10
817.644
 20
569.983
 30
0.0
 11
811.138
 21
571.398
 31
0.0
  0
LINE
  8
0
 62
     250
 10
811.138
 20
571.398
 30
0.0
 11
805.536
 21
572.834
 31
0.0
  0
LINE
  8
0
 62
     250
 10
805.536
 20
572.834
 30
0.0
 11
800.943
 21
574.266
 31
0.0
  0
LINE
  8
0
 62
     250
 10
800.943
 20
574.266
 30
0.0
 11
797.447
 21
575.67
 31
0.0
  0
LINE
  8
0
 62
     250
 10
797.447
 20
575.67
 30
0.0
 11
795.662
 21
576.615
 31
0.0
  0
LINE
  8
0
 62
     250
 10
795.662
 20
576.615
 30
0.0
 11
795.147
 21
577.025
 31
0.0
  0
LINE
  8
0
 62
     250
 10
795.147
 20
577.025
 30
0.0
 11
794.311
 21
577.691
 31
0.0
  0
LINE
  8
0
 62
     250
 10
794.311
 20
577.691
 30
0.0
 11
791.856
 21
579.748
 31
0.0
  0
LINE
  8
0
 62
     250
 10
791.856
 20
579.748
 30
0.0
 11
788.871
 21
582.747
 31
0.0
  0
LINE
  8
0
 62
     250
 10
788.871
 20
582.747
 30
0.0
 11
786.504
 21
586.236
 31
0.0
  0
LINE
  8
0
 62
     250
 10
786.504
 20
586.236
 30
0.0
 11
785.269
 21
589.343
 31
0.0
  0
LINE
  8
0
 62
     250
 10
785.269
 20
589.343
 30
0.0
 11
785.068
 21
590.419
 31
0.0
  0
LINE
  8
0
 62
     250
 10
785.068
 20
590.419
 30
0.0
 11
784.927
 21
591.153
 31
0.0
  0
LINE
  8
0
 62
     250
 10
784.927
 20
591.153
 30
0.0
 11
784.507
 21
593.348
 31
0.0
  0
LINE
  8
0
 62
     250
 10
784.507
 20
593.348
 30
0.0
 11
783.745
 21
597.461
 31
0.0
  0
LINE
  8
0
 62
     250
 10
783.745
 20
597.461
 30
0.0
 11
782.86
 21
602.654
 31
0.0
  0
LINE
  8
0
 62
     250
 10
782.86
 20
602.654
 30
0.0
 11
781.918
 21
608.813
 31
0.0
  0
LINE
  8
0
 62
     250
 10
781.918
 20
608.813
 30
0.0
 11
780.994
 21
615.837
 31
0.0
  0
LINE
  8
0
 62
     250
 10
780.994
 20
615.837
 30
0.0
 11
780.161
 21
623.616
 31
0.0
  0
LINE
  8
0
 62
     250
 10
780.161
 20
623.616
 30
0.0
 11
779.491
 21
632.047
 31
0.0
  0
LINE
  8
0
 62
     250
 10
779.491
 20
632.047
 30
0.0
 11
779.127
 21
638.775
 31
0.0
  0
LINE
  8
0
 62
     250
 10
779.127
 20
638.775
 30
0.0
 11
779.057
 21
641.015
 31
0.0
  0
LINE
  8
0
 62
     250
 10
779.057
 20
641.015
 30
0.0
 11
778.99
 21
643.199
 31
0.0
  0
LINE
  8
0
 62
     250
 10
778.99
 20
643.199
 30
0.0
 11
778.888
 21
649.746
 31
0.0
  0
LINE
  8
0
 62
     250
 10
778.888
 20
649.746
 30
0.0
 11
778.965
 21
657.56
 31
0.0
  0
LINE
  8
0
 62
     250
 10
778.965
 20
657.56
 30
0.0
 11
779.3
 21
664.52
 31
0.0
  0
LINE
  8
0
 62
     250
 10
779.3
 20
664.52
 30
0.0
 11
779.903
 21
670.687
 31
0.0
  0
LINE
  8
0
 62
     250
 10
779.903
 20
670.687
 30
0.0
 11
780.792
 21
676.123
 31
0.0
  0
LINE
  8
0
 62
     250
 10
780.792
 20
676.123
 30
0.0
 11
781.974
 21
680.886
 31
0.0
  0
LINE
  8
0
 62
     250
 10
781.974
 20
680.886
 30
0.0
 11
783.46
 21
685.038
 31
0.0
  0
LINE
  8
0
 62
     250
 10
783.46
 20
685.038
 30
0.0
 11
784.751
 21
687.772
 31
0.0
  0
LINE
  8
0
 62
     250
 10
784.751
 20
687.772
 30
0.0
 11
785.259
 21
688.64
 31
0.0
  0
LINE
  8
0
 62
     250
 10
785.259
 20
688.64
 30
0.0
 11
785.735
 21
689.451
 31
0.0
  0
LINE
  8
0
 62
     250
 10
785.735
 20
689.451
 30
0.0
 11
787.449
 21
691.72
 31
0.0
  0
LINE
  8
0
 62
     250
 10
787.449
 20
691.72
 30
0.0
 11
790.032
 21
694.295
 31
0.0
  0
LINE
  8
0
 62
     250
 10
790.032
 20
694.295
 30
0.0
 11
792.907
 21
696.429
 31
0.0
  0
LINE
  8
0
 62
     250
 10
792.907
 20
696.429
 30
0.0
 11
795.969
 21
698.172
 31
0.0
  0
LINE
  8
0
 62
     250
 10
795.969
 20
698.172
 30
0.0
 11
799.123
 21
699.587
 31
0.0
  0
LINE
  8
0
 62
     250
 10
799.123
 20
699.587
 30
0.0
 11
802.27
 21
700.723
 31
0.0
  0
LINE
  8
0
 62
     250
 10
802.27
 20
700.723
 30
0.0
 11
805.303
 21
701.643
 31
0.0
  0
LINE
  8
0
 62
     250
 10
805.303
 20
701.643
 30
0.0
 11
807.424
 21
702.222
 31
0.0
  0
LINE
  8
0
 62
     250
 10
807.424
 20
702.222
 30
0.0
 11
808.133
 21
702.405
 31
0.0
  0
LINE
  8
0
 62
     250
 10
808.133
 20
702.405
 30
0.0
 11
809.025
 21
702.635
 31
0.0
  0
LINE
  8
0
 62
     250
 10
809.025
 20
702.635
 30
0.0
 11
811.731
 21
703.22
 31
0.0
  0
LINE
  8
0
 62
     250
 10
811.731
 20
703.22
 30
0.0
 11
816.871
 21
704.208
 31
0.0
  0
LINE
  8
0
 62
     250
 10
816.871
 20
704.208
 30
0.0
 11
823.119
 21
705.284
 31
0.0
  0
LINE
  8
0
 62
     250
 10
823.119
 20
705.284
 30
0.0
 11
830.058
 21
706.356
 31
0.0
  0
LINE
  8
0
 62
     250
 10
830.058
 20
706.356
 30
0.0
 11
837.262
 21
707.344
 31
0.0
  0
LINE
  8
0
 62
     250
 10
837.262
 20
707.344
 30
0.0
 11
844.303
 21
708.159
 31
0.0
  0
LINE
  8
0
 62
     250
 10
844.303
 20
708.159
 30
0.0
 11
850.759
 21
708.713
 31
0.0
  0
LINE
  8
0
 62
     250
 10
850.759
 20
708.713
 30
0.0
 11
854.841
 21
708.914
 31
0.0
  0
LINE
  8
0
 62
     250
 10
854.841
 20
708.914
 30
0.0
 11
856.202
 21
708.914
 31
0.0
  0
LINE
  8
0
 62
     250
 10
856.202
 20
708.914
 30
0.0
 11
857.525
 21
708.914
 31
0.0
  0
LINE
  8
0
 62
     250
 10
857.525
 20
708.914
 30
0.0
 11
861.497
 21
708.826
 31
0.0
  0
LINE
  8
0
 62
     250
 10
861.497
 20
708.826
 30
0.0
 11
867.601
 21
708.568
 31
0.0
  0
LINE
  8
0
 62
     250
 10
867.601
 20
708.568
 30
0.0
 11
874.233
 21
708.18
 31
0.0
  0
LINE
  8
0
 62
     250
 10
874.233
 20
708.18
 30
0.0
 11
881.108
 21
707.683
 31
0.0
  0
LINE
  8
0
 62
     250
 10
881.108
 20
707.683
 30
0.0
 11
887.949
 21
707.108
 31
0.0
  0
LINE
  8
0
 62
     250
 10
887.949
 20
707.108
 30
0.0
 11
894.472
 21
706.483
 31
0.0
  0
LINE
  8
0
 62
     250
 10
894.472
 20
706.483
 30
0.0
 11
900.395
 21
705.834
 31
0.0
  0
LINE
  8
0
 62
     250
 10
900.395
 20
705.834
 30
0.0
 11
904.177
 21
705.369
 31
0.0
  0
LINE
  8
0
 62
     250
 10
904.177
 20
705.369
 30
0.0
 11
905.436
 21
705.196
 31
0.0
  0
LINE
  8
0
 62
     250
 10
905.436
 20
705.196
 30
0.0
 11
906.099
 21
705.1
 31
0.0
  0
LINE
  8
0
 62
     250
 10
906.099
 20
705.1
 30
0.0
 11
908.096
 21
704.825
 31
0.0
  0
LINE
  8
0
 62
     250
 10
908.096
 20
704.825
 30
0.0
 11
911.514
 21
704.356
 31
0.0
  0
LINE
  8
0
 62
     250
 10
911.514
 20
704.356
 30
0.0
 11
915.589
 21
703.792
 31
0.0
  0
LINE
  8
0
 62
     250
 10
915.589
 20
703.792
 30
0.0
 11
920.228
 21
703.146
 31
0.0
  0
LINE
  8
0
 62
     250
 10
920.228
 20
703.146
 30
0.0
 11
925.333
 21
702.43
 31
0.0
  0
LINE
  8
0
 62
     250
 10
925.333
 20
702.43
 30
0.0
 11
930.811
 21
701.654
 31
0.0
  0
LINE
  8
0
 62
     250
 10
930.811
 20
701.654
 30
0.0
 11
936.569
 21
700.828
 31
0.0
  0
LINE
  8
0
 62
     250
 10
936.569
 20
700.828
 30
0.0
 11
942.506
 21
699.964
 31
0.0
  0
LINE
  8
0
 62
     250
 10
942.506
 20
699.964
 30
0.0
 11
948.528
 21
699.068
 31
0.0
  0
LINE
  8
0
 62
     250
 10
948.528
 20
699.068
 30
0.0
 11
954.543
 21
698.158
 31
0.0
  0
LINE
  8
0
 62
     250
 10
954.543
 20
698.158
 30
0.0
 11
960.455
 21
697.241
 31
0.0
  0
LINE
  8
0
 62
     250
 10
960.455
 20
697.241
 30
0.0
 11
966.163
 21
696.327
 31
0.0
  0
LINE
  8
0
 62
     250
 10
966.163
 20
696.327
 30
0.0
 11
971.578
 21
695.427
 31
0.0
  0
LINE
  8
0
 62
     250
 10
971.578
 20
695.427
 30
0.0
 11
976.602
 21
694.549
 31
0.0
  0
LINE
  8
0
 62
     250
 10
976.602
 20
694.549
 30
0.0
 11
981.142
 21
693.713
 31
0.0
  0
LINE
  8
0
 62
     250
 10
981.142
 20
693.713
 30
0.0
 11
984.112
 21
693.127
 31
0.0
  0
LINE
  8
0
 62
     250
 10
984.112
 20
693.127
 30
0.0
 11
985.1
 21
692.916
 31
0.0
  0
LINE
  8
0
 62
     250
 10
985.1
 20
692.916
 30
0.0
 11
986.97
 21
692.52
 31
0.0
  0
LINE
  8
0
 62
     250
 10
986.97
 20
692.52
 30
0.0
 11
992.583
 21
691.279
 31
0.0
  0
LINE
  8
0
 62
     250
 10
992.583
 20
691.279
 30
0.0
 11
1000.45
 21
689.398
 31
0.0
  0
LINE
  8
0
 62
     250
 10
1000.45
 20
689.398
 30
0.0
 11
1008.62
 21
687.225
 31
0.0
  0
LINE
  8
0
 62
     250
 10
1008.62
 20
687.225
 30
0.0
 11
1017.03
 21
684.71
 31
0.0
  0
LINE
  8
0
 62
     250
 10
1017.03
 20
684.71
 30
0.0
 11
1025.61
 21
681.803
 31
0.0
  0
LINE
  8
0
 62
     250
 10
1025.61
 20
681.803
 30
0.0
 11
1034.27
 21
678.452
 31
0.0
  0
LINE
  8
0
 62
     250
 10
1034.27
 20
678.452
 30
0.0
 11
1042.95
 21
674.61
 31
0.0
  0
LINE
  8
0
 62
     250
 10
1042.95
 20
674.61
 30
0.0
 11
1049.46
 21
671.382
 31
0.0
  0
LINE
  8
0
 62
     250
 10
1049.46
 20
671.382
 30
0.0
 11
1051.58
 21
670.221
 31
0.0
  0
LINE
  8
0
 62
     250
 10
1051.58
 20
670.221
 30
0.0
 11
1053.72
 21
669.057
 31
0.0
  0
LINE
  8
0
 62
     250
 10
1053.72
 20
669.057
 30
0.0
 11
1059.99
 21
665.3
 31
0.0
  0
LINE
  8
0
 62
     250
 10
1059.99
 20
665.3
 30
0.0
 11
1068.05
 21
659.888
 31
0.0
  0
LINE
  8
0
 62
     250
 10
1068.05
 20
659.888
 30
0.0
 11
1075.75
 21
654.015
 31
0.0
  0
LINE
  8
0
 62
     250
 10
1075.75
 20
654.015
 30
0.0
 11
1083.06
 21
647.689
 31
0.0
  0
LINE
  8
0
 62
     250
 10
1083.06
 20
647.689
 30
0.0
 11
1089.95
 21
640.941
 31
0.0
  0
LINE
  8
0
 62
     250
 10
1089.95
 20
640.941
 30
0.0
 11
1096.42
 21
633.783
 31
0.0
  0
LINE
  8
0
 62
     250
 10
1096.42
 20
633.783
 30
0.0
 11
1102.44
 21
626.237
 31
0.0
  0
LINE
  8
0
 62
     250
 10
1102.44
 20
626.237
 30
0.0
 11
1106.66
 21
620.342
 31
0.0
  0
LINE
  8
0
 62
     250
 10
1106.66
 20
620.342
 30
0.0
 11
1107.99
 21
618.324
 31
0.0
  0
LINE
  8
0
 62
     250
 10
1107.99
 20
618.324
 30
0.0
 11
1109.33
 21
616.268
 31
0.0
  0
LINE
  8
0
 62
     250
 10
1109.33
 20
616.268
 30
0.0
 11
1112.95
 21
609.819
 31
0.0
  0
LINE
  8
0
 62
     250
 10
1112.95
 20
609.819
 30
0.0
 11
1117.24
 21
600.572
 31
0.0
  0
LINE
  8
0
 62
     250
 10
1117.24
 20
600.572
 30
0.0
 11
1120.92
 21
590.723
 31
0.0
  0
LINE
  8
0
 62
     250
 10
1120.92
 20
590.723
 30
0.0
 11
1124.03
 21
580.397
 31
0.0
  0
LINE
  8
0
 62
     250
 10
1124.03
 20
580.397
 30
0.0
 11
1126.61
 21
569.736
 31
0.0
  0
LINE
  8
0
 62
     250
 10
1126.61
 20
569.736
 30
0.0
 11
1128.7
 21
558.864
 31
0.0
  0
LINE
  8
0
 62
     250
 10
1128.7
 20
558.864
 30
0.0
 11
1130.36
 21
547.917
 31
0.0
  0
LINE
  8
0
 62
     250
 10
1130.36
 20
547.917
 30
0.0
 11
1131.36
 21
539.757
 31
0.0
  0
LINE
  8
0
 62
     250
 10
1131.36
 20
539.757
 30
0.0
 11
1131.64
 21
537.03
 31
0.0
  0
LINE
  8
0
 62
     250
 10
1131.64
 20
537.03
 30
0.0
 11
1131.71
 21
536.272
 31
0.0
  0
LINE
  8
0
 62
     250
 10
1131.71
 20
536.272
 30
0.0
 11
1131.91
 21
533.986
 31
0.0
  0
LINE
  8
0
 62
     250
 10
1131.91
 20
533.986
 30
0.0
 11
1132.19
 21
530.292
 31
0.0
  0
LINE
  8
0
 62
     250
 10
1132.19
 20
530.292
 30
0.0
 11
1132.47
 21
525.995
 31
0.0
  0
LINE
  8
0
 62
     250
 10
1132.47
 20
525.995
 30
0.0
 11
1132.75
 21
521.141
 31
0.0
  0
LINE
  8
0
 62
     250
 10
1132.75
 20
521.141
 30
0.0
 11
1133.04
 21
515.782
 31
0.0
  0
LINE
  8
0
 62
     250
 10
1133.04
 20
515.782
 30
0.0
 11
1133.32
 21
509.961
 31
0.0
  0
LINE
  8
0
 62
     250
 10
1133.32
 20
509.961
 30
0.0
 11
1133.61
 21
503.731
 31
0.0
  0
LINE
  8
0
 62
     250
 10
1133.61
 20
503.731
 30
0.0
 11
1133.89
 21
497.138
 31
0.0
  0
LINE
  8
0
 62
     250
 10
1133.89
 20
497.138
 30
0.0
 11
1134.17
 21
490.231
 31
0.0
  0
LINE
  8
0
 62
     250
 10
1134.17
 20
490.231
 30
0.0
 11
1134.45
 21
483.055
 31
0.0
  0
LINE
  8
0
 62
     250
 10
1134.45
 20
483.055
 30
0.0
 11
1134.73
 21
475.661
 31
0.0
  0
LINE
  8
0
 62
     250
 10
1134.73
 20
475.661
 30
0.0
 11
1135
 21
468.094
 31
0.0
  0
LINE
  8
0
 62
     250
 10
1135
 20
468.094
 30
0.0
 11
1135.26
 21
460.403
 31
0.0
  0
LINE
  8
0
 62
     250
 10
1135.26
 20
460.403
 30
0.0
 11
1135.52
 21
452.635
 31
0.0
  0
LINE
  8
0
 62
     250
 10
1135.52
 20
452.635
 30
0.0
 11
1135.78
 21
444.842
 31
0.0
  0
LINE
  8
0
 62
     250
 10
1135.78
 20
444.842
 30
0.0
 11
1136.02
 21
437.07
 31
0.0
  0
LINE
  8
0
 62
     250
 10
1136.02
 20
437.07
 30
0.0
 11
1136.25
 21
429.362
 31
0.0
  0
LINE
  8
0
 62
     250
 10
1136.25
 20
429.362
 30
0.0
 11
1136.48
 21
421.774
 31
0.0
  0
LINE
  8
0
 62
     250
 10
1136.48
 20
421.774
 30
0.0
 11
1136.7
 21
414.348
 31
0.0
  0
LINE
  8
0
 62
     250
 10
1136.7
 20
414.348
 30
0.0
 11
1136.91
 21
407.137
 31
0.0
  0
LINE
  8
0
 62
     250
 10
1136.91
 20
407.137
 30
0.0
 11
1137.1
 21
400.184
 31
0.0
  0
LINE
  8
0
 62
     250
 10
1137.1
 20
400.184
 30
0.0
 11
1137.28
 21
393.538
 31
0.0
  0
LINE
  8
0
 62
     250
 10
1137.28
 20
393.538
 30
0.0
 11
1137.45
 21
387.244
 31
0.0
  0
LINE
  8
0
 62
     250
 10
1137.45
 20
387.244
 30
0.0
 11
1137.6
 21
381.36
 31
0.0
  0
LINE
  8
0
 62
     250
 10
1137.6
 20
381.36
 30
0.0
 11
1137.74
 21
375.924
 31
0.0
  0
LINE
  8
0
 62
     250
 10
1137.74
 20
375.924
 30
0.0
 11
1137.87
 21
370.988
 31
0.0
  0
LINE
  8
0
 62
     250
 10
1137.87
 20
370.988
 30
0.0
 11
1137.97
 21
366.6
 31
0.0
  0
LINE
  8
0
 62
     250
 10
1137.97
 20
366.6
 30
0.0
 11
1138.06
 21
362.807
 31
0.0
  0
LINE
  8
0
 62
     250
 10
1138.06
 20
362.807
 30
0.0
 11
1138.13
 21
359.657
 31
0.0
  0
LINE
  8
0
 62
     250
 10
1138.13
 20
359.657
 30
0.0
 11
1138.18
 21
357.198
 31
0.0
  0
LINE
  8
0
 62
     250
 10
1138.18
 20
357.198
 30
0.0
 11
1138.21
 21
355.48
 31
0.0
  0
LINE
  8
0
 62
     250
 10
1138.21
 20
355.48
 30
0.0
 11
1138.22
 21
354.782
 31
0.0
  0
LINE
  8
0
 62
     250
 10
1138.22
 20
354.782
 30
0.0
 11
1138.22
 21
354.545
 31
0.0
  0
LINE
  8
0
 62
     250
 10
787.294
 20
585.096
 30
0.0
 11
787.294
 21
585.096
 31
0.0
  0
LINE
  8
0
 62
     250
 10
787.294
 20
585.096
 30
0.0
 11
787.329
 21
585.297
 31
0.0
  0
LINE
  8
0
 62
     250
 10
787.329
 20
585.297
 30
0.0
 11
787.449
 21
585.858
 31
0.0
  0
LINE
  8
0
 62
     250
 10
787.449
 20
585.858
 30
0.0
 11
787.696
 21
586.698
 31
0.0
  0
LINE
  8
0
 62
     250
 10
787.696
 20
586.698
 30
0.0
 11
788.102
 21
587.745
 31
0.0
  0
LINE
  8
0
 62
     250
 10
788.102
 20
587.745
 30
0.0
 11
788.705
 21
588.924
 31
0.0
  0
LINE
  8
0
 62
     250
 10
788.705
 20
588.924
 30
0.0
 11
789.534
 21
590.158
 31
0.0
  0
LINE
  8
0
 62
     250
 10
789.534
 20
590.158
 30
0.0
 11
790.628
 21
591.372
 31
0.0
  0
LINE
  8
0
 62
     250
 10
790.628
 20
591.372
 30
0.0
 11
791.651
 21
592.24
 31
0.0
  0
LINE
  8
0
 62
     250
 10
791.651
 20
592.24
 30
0.0
 11
792.021
 21
592.49
 31
0.0
  0
LINE
  8
0
 62
     250
 10
792.021
 20
592.49
 30
0.0
 11
792.533
 21
592.832
 31
0.0
  0
LINE
  8
0
 62
     250
 10
792.533
 20
592.832
 30
0.0
 11
794.226
 21
593.633
 31
0.0
  0
LINE
  8
0
 62
     250
 10
794.226
 20
593.633
 30
0.0
 11
797.669
 21
594.924
 31
0.0
  0
LINE
  8
0
 62
     250
 10
797.669
 20
594.924
 30
0.0
 11
802.234
 21
596.297
 31
0.0
  0
LINE
  8
0
 62
     250
 10
802.234
 20
596.297
 30
0.0
 11
807.819
 21
597.687
 31
0.0
  0
LINE
  8
0
 62
     250
 10
807.819
 20
597.687
 30
0.0
 11
814.313
 21
599.024
 31
0.0
  0
LINE
  8
0
 62
     250
 10
814.313
 20
599.024
 30
0.0
 11
821.612
 21
600.237
 31
0.0
  0
LINE
  8
0
 62
     250
 10
821.612
 20
600.237
 30
0.0
 11
829.603
 21
601.271
 31
0.0
  0
LINE
  8
0
 62
     250
 10
829.603
 20
601.271
 30
0.0
 11
836.03
 21
601.895
 31
0.0
  0
LINE
  8
0
 62
     250
 10
836.03
 20
601.895
 30
0.0
 11
838.175
 21
602.047
 31
0.0
  0
LINE
  8
0
 62
     250
 10
838.175
 20
602.047
 30
0.0
 11
840.331
 21
602.199
 31
0.0
  0
LINE
  8
0
 62
     250
 10
840.331
 20
602.199
 30
0.0
 11
846.801
 21
602.65
 31
0.0
  0
LINE
  8
0
 62
     250
 10
846.801
 20
602.65
 30
0.0
 11
855.045
 21
603.148
 31
0.0
  0
LINE
  8
0
 62
     250
 10
855.045
 20
603.148
 30
0.0
 11
862.944
 21
603.472
 31
0.0
  0
LINE
  8
0
 62
     250
 10
862.944
 20
603.472
 30
0.0
 11
870.539
 21
603.546
 31
0.0
  0
LINE
  8
0
 62
     250
 10
870.539
 20
603.546
 30
0.0
 11
877.866
 21
603.292
 31
0.0
  0
LINE
  8
0
 62
     250
 10
877.866
 20
603.292
 30
0.0
 11
884.968
 21
602.633
 31
0.0
  0
LINE
  8
0
 62
     250
 10
884.968
 20
602.633
 30
0.0
 11
891.886
 21
601.5
 31
0.0
  0
LINE
  8
0
 62
     250
 10
891.886
 20
601.5
 30
0.0
 11
896.98
 21
600.308
 31
0.0
  0
LINE
  8
0
 62
     250
 10
896.98
 20
600.308
 30
0.0
 11
898.652
 21
599.814
 31
0.0
  0
LINE
  8
0
 62
     250
 10
898.652
 20
599.814
 30
0.0
 11
899.502
 21
599.56
 31
0.0
  0
LINE
  8
0
 62
     250
 10
899.502
 20
599.56
 30
0.0
 11
902.025
 21
598.685
 31
0.0
  0
LINE
  8
0
 62
     250
 10
902.025
 20
598.685
 30
0.0
 11
905.425
 21
597.32
 31
0.0
  0
LINE
  8
0
 62
     250
 10
905.425
 20
597.32
 30
0.0
 11
908.819
 21
595.761
 31
0.0
  0
LINE
  8
0
 62
     250
 10
908.819
 20
595.761
 30
0.0
 11
912.167
 21
594.046
 31
0.0
  0
LINE
  8
0
 62
     250
 10
912.167
 20
594.046
 30
0.0
 11
915.441
 21
592.222
 31
0.0
  0
LINE
  8
0
 62
     250
 10
915.441
 20
592.222
 30
0.0
 11
918.605
 21
590.335
 31
0.0
  0
LINE
  8
0
 62
     250
 10
918.605
 20
590.335
 30
0.0
 11
921.625
 21
588.419
 31
0.0
  0
LINE
  8
0
 62
     250
 10
921.625
 20
588.419
 30
0.0
 11
924.472
 21
586.525
 31
0.0
  0
LINE
  8
0
 62
     250
 10
924.472
 20
586.525
 30
0.0
 11
927.107
 21
584.694
 31
0.0
  0
LINE
  8
0
 62
     250
 10
927.107
 20
584.694
 30
0.0
 11
929.499
 21
582.965
 31
0.0
  0
LINE
  8
0
 62
     250
 10
929.499
 20
582.965
 30
0.0
 11
931.616
 21
581.388
 31
0.0
  0
LINE
  8
0
 62
     250
 10
931.616
 20
581.388
 30
0.0
 11
933.425
 21
579.998
 31
0.0
  0
LINE
  8
0
 62
     250
 10
933.425
 20
579.998
 30
0.0
 11
934.886
 21
578.845
 31
0.0
  0
LINE
  8
0
 62
     250
 10
934.886
 20
578.845
 30
0.0
 11
935.976
 21
577.966
 31
0.0
  0
LINE
  8
0
 62
     250
 10
935.976
 20
577.966
 30
0.0
 11
936.65
 21
577.409
 31
0.0
  0
LINE
  8
0
 62
     250
 10
936.65
 20
577.409
 30
0.0
 11
936.883
 21
577.211
 31
0.0
  0
LINE
  8
0
 62
     250
 10
936.883
 20
577.211
 30
0.0
 11
936.883
 21
577.211
 31
0.0
  0
LINE
  8
0
 62
     250
 10
936.883
 20
577.211
 30
0.0
 11
936.883
 21
577.211
 31
0.0
  0
LINE
  8
0
 62
     250
 10
936.883
 20
577.211
 30
0.0
 11
937.041
 21
576.301
 31
0.0
  0
LINE
  8
0
 62
     250
 10
937.041
 20
576.301
 30
0.0
 11
937.482
 21
574.107
 31
0.0
  0
LINE
  8
0
 62
     250
 10
937.482
 20
574.107
 30
0.0
 11
938.17
 21
571.444
 31
0.0
  0
LINE
  8
0
 62
     250
 10
938.17
 20
571.444
 30
0.0
 11
938.777
 21
569.669
 31
0.0
  0
LINE
  8
0
 62
     250
 10
938.777
 20
569.669
 30
0.0
 11
939.063
 21
569.119
 31
0.0
  0
LINE
  8
0
 62
     250
 10
939.063
 20
569.119
 30
0.0
 11
939.253
 21
568.759
 31
0.0
  0
LINE
  8
0
 62
     250
 10
939.253
 20
568.759
 30
0.0
 11
939.775
 21
567.648
 31
0.0
  0
LINE
  8
0
 62
     250
 10
939.775
 20
567.648
 30
0.0
 11
940.897
 21
565.175
 31
0.0
  0
LINE
  8
0
 62
     250
 10
940.897
 20
565.175
 30
0.0
 11
942.368
 21
561.806
 31
0.0
  0
LINE
  8
0
 62
     250
 10
942.368
 20
561.806
 30
0.0
 11
944.136
 21
557.646
 31
0.0
  0
LINE
  8
0
 62
     250
 10
944.136
 20
557.646
 30
0.0
 11
946.136
 21
552.789
 31
0.0
  0
LINE
  8
0
 62
     250
 10
946.136
 20
552.789
 30
0.0
 11
948.323
 21
547.342
 31
0.0
  0
LINE
  8
0
 62
     250
 10
948.323
 20
547.342
 30
0.0
 11
950.637
 21
541.408
 31
0.0
  0
LINE
  8
0
 62
     250
 10
950.637
 20
541.408
 30
0.0
 11
952.433
 21
536.663
 31
0.0
  0
LINE
  8
0
 62
     250
 10
952.433
 20
536.663
 30
0.0
 11
953.022
 21
535.079
 31
0.0
  0
LINE
  8
0
 62
     250
 10
953.022
 20
535.079
 30
0.0
 11
953.671
 21
533.319
 31
0.0
  0
LINE
  8
0
 62
     250
 10
953.671
 20
533.319
 30
0.0
 11
955.428
 21
527.964
 31
0.0
  0
LINE
  8
0
 62
     250
 10
955.428
 20
527.964
 30
0.0
 11
957.831
 21
519.772
 31
0.0
  0
LINE
  8
0
 62
     250
 10
957.831
 20
519.772
 30
0.0
 11
960.162
 21
510.776
 31
0.0
  0
LINE
  8
0
 62
     250
 10
960.162
 20
510.776
 30
0.0
 11
962.378
 21
501.248
 31
0.0
  0
LINE
  8
0
 62
     250
 10
962.378
 20
501.248
 30
0.0
 11
964.424
 21
491.455
 31
0.0
  0
LINE
  8
0
 62
     250
 10
964.424
 20
491.455
 30
0.0
 11
966.244
 21
481.676
 31
0.0
  0
LINE
  8
0
 62
     250
 10
966.244
 20
481.676
 30
0.0
 11
967.793
 21
472.175
 31
0.0
  0
LINE
  8
0
 62
     250
 10
967.793
 20
472.175
 30
0.0
 11
968.742
 21
465.469
 31
0.0
  0
LINE
  8
0
 62
     250
 10
968.742
 20
465.469
 30
0.0
 11
969.01
 21
463.229
 31
0.0
  0
LINE
  8
0
 62
     250
 10
969.01
 20
463.229
 30
0.0
 11
969.155
 21
462.022
 31
0.0
  0
LINE
  8
0
 62
     250
 10
969.155
 20
462.022
 30
0.0
 11
969.529
 21
458.399
 31
0.0
  0
LINE
  8
0
 62
     250
 10
969.529
 20
458.399
 30
0.0
 11
970.047
 21
452.596
 31
0.0
  0
LINE
  8
0
 62
     250
 10
970.047
 20
452.596
 30
0.0
 11
970.559
 21
445.968
 31
0.0
  0
LINE
  8
0
 62
     250
 10
970.559
 20
445.968
 30
0.0
 11
971.063
 21
438.672
 31
0.0
  0
LINE
  8
0
 62
     250
 10
971.063
 20
438.672
 30
0.0
 11
971.55
 21
430.862
 31
0.0
  0
LINE
  8
0
 62
     250
 10
971.55
 20
430.862
 30
0.0
 11
972.019
 21
422.684
 31
0.0
  0
LINE
  8
0
 62
     250
 10
972.019
 20
422.684
 30
0.0
 11
972.464
 21
414.299
 31
0.0
  0
LINE
  8
0
 62
     250
 10
972.464
 20
414.299
 30
0.0
 11
972.88
 21
405.853
 31
0.0
  0
LINE
  8
0
 62
     250
 10
972.88
 20
405.853
 30
0.0
 11
973.265
 21
397.503
 31
0.0
  0
LINE
  8
0
 62
     250
 10
973.265
 20
397.503
 30
0.0
 11
973.614
 21
389.4
 31
0.0
  0
LINE
  8
0
 62
     250
 10
973.614
 20
389.4
 30
0.0
 11
973.921
 21
381.698
 31
0.0
  0
LINE
  8
0
 62
     250
 10
973.921
 20
381.698
 30
0.0
 11
974.182
 21
374.548
 31
0.0
  0
LINE
  8
0
 62
     250
 10
974.182
 20
374.548
 30
0.0
 11
974.393
 21
368.106
 31
0.0
  0
LINE
  8
0
 62
     250
 10
974.393
 20
368.106
 30
0.0
 11
974.549
 21
362.525
 31
0.0
  0
LINE
  8
0
 62
     250
 10
974.549
 20
362.525
 30
0.0
 11
974.647
 21
357.953
 31
0.0
  0
LINE
  8
0
 62
     250
 10
974.647
 20
357.953
 30
0.0
 11
974.683
 21
355.399
 31
0.0
  0
LINE
  8
0
 62
     250
 10
974.683
 20
355.399
 30
0.0
 11
974.683
 21
354.545
 31
0.0
  0
LINE
  8
0
 62
     250
 10
802.898
 20
700.917
 30
0.0
 11
802.898
 21
700.917
 31
0.0
  0
LINE
  8
0
 62
     250
 10
802.898
 20
700.917
 30
0.0
 11
803.226
 21
700.945
 31
0.0
  0
LINE
  8
0
 62
     250
 10
803.226
 20
700.945
 30
0.0
 11
804.175
 21
701.022
 31
0.0
  0
LINE
  8
0
 62
     250
 10
804.175
 20
701.022
 30
0.0
 11
805.688
 21
701.146
 31
0.0
  0
LINE
  8
0
 62
     250
 10
805.688
 20
701.146
 30
0.0
 11
807.713
 21
701.305
 31
0.0
  0
LINE
  8
0
 62
     250
 10
807.713
 20
701.305
 30
0.0
 11
810.197
 21
701.492
 31
0.0
  0
LINE
  8
0
 62
     250
 10
810.197
 20
701.492
 30
0.0
 11
813.079
 21
701.696
 31
0.0
  0
LINE
  8
0
 62
     250
 10
813.079
 20
701.696
 30
0.0
 11
816.31
 21
701.915
 31
0.0
  0
LINE
  8
0
 62
     250
 10
816.31
 20
701.915
 30
0.0
 11
819.834
 21
702.137
 31
0.0
  0
LINE
  8
0
 62
     250
 10
819.834
 20
702.137
 30
0.0
 11
823.599
 21
702.356
 31
0.0
  0
LINE
  8
0
 62
     250
 10
823.599
 20
702.356
 30
0.0
 11
827.543
 21
702.564
 31
0.0
  0
LINE
  8
0
 62
     250
 10
827.543
 20
702.564
 30
0.0
 11
831.621
 21
702.755
 31
0.0
  0
LINE
  8
0
 62
     250
 10
831.621
 20
702.755
 30
0.0
 11
835.769
 21
702.917
 31
0.0
  0
LINE
  8
0
 62
     250
 10
835.769
 20
702.917
 30
0.0
 11
839.943
 21
703.047
 31
0.0
  0
LINE
  8
0
 62
     250
 10
839.943
 20
703.047
 30
0.0
 11
844.081
 21
703.132
 31
0.0
  0
LINE
  8
0
 62
     250
 10
844.081
 20
703.132
 30
0.0
 11
848.127
 21
703.171
 31
0.0
  0
LINE
  8
0
 62
     250
 10
848.127
 20
703.171
 30
0.0
 11
851.059
 21
703.16
 31
0.0
  0
LINE
  8
0
 62
     250
 10
851.059
 20
703.16
 30
0.0
 11
852.036
 21
703.15
 31
0.0
  0
LINE
  8
0
 62
     250
 10
852.036
 20
703.15
 30
0.0
 11
853.98
 21
703.121
 31
0.0
  0
LINE
  8
0
 62
     250
 10
853.98
 20
703.121
 30
0.0
 11
859.811
 21
702.941
 31
0.0
  0
LINE
  8
0
 62
     250
 10
859.811
 20
702.941
 30
0.0
 11
867.805
 21
702.557
 31
0.0
  0
LINE
  8
0
 62
     250
 10
867.805
 20
702.557
 30
0.0
 11
875.905
 21
702.035
 31
0.0
  0
LINE
  8
0
 62
     250
 10
875.905
 20
702.035
 30
0.0
 11
884.005
 21
701.417
 31
0.0
  0
LINE
  8
0
 62
     250
 10
884.005
 20
701.417
 30
0.0
 11
891.988
 21
700.74
 31
0.0
  0
LINE
  8
0
 62
     250
 10
891.988
 20
700.74
 30
0.0
 11
899.746
 21
700.049
 31
0.0
  0
LINE
  8
0
 62
     250
 10
899.746
 20
700.049
 30
0.0
 11
907.175
 21
699.382
 31
0.0
  0
LINE
  8
0
 62
     250
 10
907.175
 20
699.382
 30
0.0
 11
912.41
 21
698.923
 31
0.0
  0
LINE
  8
0
 62
     250
 10
912.41
 20
698.923
 30
0.0
 11
914.157
 21
698.775
 31
0.0
  0
LINE
  8
0
 62
     250
 10
914.157
 20
698.775
 30
0.0
 11
915.942
 21
698.627
 31
0.0
  0
LINE
  8
0
 62
     250
 10
915.942
 20
698.627
 30
0.0
 11
921.29
 21
698.165
 31
0.0
  0
LINE
  8
0
 62
     250
 10
921.29
 20
698.165
 30
0.0
 11
929.072
 21
697.442
 31
0.0
  0
LINE
  8
0
 62
     250
 10
929.072
 20
697.442
 30
0.0
 11
937.256
 21
696.599
 31
0.0
  0
LINE
  8
0
 62
     250
 10
937.256
 20
696.599
 30
0.0
 11
945.593
 21
695.628
 31
0.0
  0
LINE
  8
0
 62
     250
 10
945.593
 20
695.628
 30
0.0
 11
953.837
 21
694.521
 31
0.0
  0
LINE
  8
0
 62
     250
 10
953.837
 20
694.521
 30
0.0
 11
961.736
 21
693.272
 31
0.0
  0
LINE
  8
0
 62
     250
 10
961.736
 20
693.272
 30
0.0
 11
969.042
 21
691.871
 31
0.0
  0
LINE
  8
0
 62
     250
 10
969.042
 20
691.871
 30
0.0
 11
973.903
 21
690.753
 31
0.0
  0
LINE
  8
0
 62
     250
 10
973.903
 20
690.753
 30
0.0
 11
975.505
 21
690.312
 31
0.0
  0
LINE
  8
0
 62
     250
 10
975.505
 20
690.312
 30
0.0
 11
977.223
 21
689.839
 31
0.0
  0
LINE
  8
0
 62
     250
 10
977.223
 20
689.839
 30
0.0
 11
982.345
 21
688.305
 31
0.0
  0
LINE
  8
0
 62
     250
 10
982.345
 20
688.305
 30
0.0
 11
990.632
 21
685.602
 31
0.0
  0
LINE
  8
0
 62
     250
 10
990.632
 20
685.602
 30
0.0
 11
999.903
 21
682.272
 31
0.0
  0
LINE
  8
0
 62
     250
 10
999.903
 20
682.272
 30
0.0
 11
1009.68
 21
678.374
 31
0.0
  0
LINE
  8
0
 62
     250
 10
1009.68
 20
678.374
 30
0.0
 11
1019.5
 21
673.975
 31
0.0
  0
LINE
  8
0
 62
     250
 10
1019.5
 20
673.975
 30
0.0
 11
1028.89
 21
669.138
 31
0.0
  0
LINE
  8
0
 62
     250
 10
1028.89
 20
669.138
 30
0.0
 11
1037.38
 21
663.928
 31
0.0
  0
LINE
  8
0
 62
     250
 10
1037.38
 20
663.928
 30
0.0
 11
1042.84
 21
659.913
 31
0.0
  0
LINE
  8
0
 62
     250
 10
1042.84
 20
659.913
 30
0.0
 11
1044.51
 21
658.41
 31
0.0
  0
LINE
  8
0
 62
     250
 10
1044.51
 20
658.41
 30
0.0
 11
1046.07
 21
657.006
 31
0.0
  0
LINE
  8
0
 62
     250
 10
1046.07
 20
657.006
 30
0.0
 11
1050.49
 21
652.494
 31
0.0
  0
LINE
  8
0
 62
     250
 10
1050.49
 20
652.494
 30
0.0
 11
1055.85
 21
646.13
 31
0.0
  0
LINE
  8
0
 62
     250
 10
1055.85
 20
646.13
 30
0.0
 11
1060.6
 21
639.456
 31
0.0
  0
LINE
  8
0
 62
     250
 10
1060.6
 20
639.456
 30
0.0
 11
1064.74
 21
632.587
 31
0.0
  0
LINE
  8
0
 62
     250
 10
1064.74
 20
632.587
 30
0.0
 11
1068.27
 21
625.666
 31
0.0
  0
LINE
  8
0
 62
     250
 10
1068.27
 20
625.666
 30
0.0
 11
1071.19
 21
618.818
 31
0.0
  0
LINE
  8
0
 62
     250
 10
1071.19
 20
618.818
 30
0.0
 11
1073.51
 21
612.172
 31
0.0
  0
LINE
  8
0
 62
     250
 10
1073.51
 20
612.172
 30
0.0
 11
1074.86
 21
607.452
 31
0.0
  0
LINE
  8
0
 62
     250
 10
1074.86
 20
607.452
 30
0.0
 11
1075.23
 21
605.857
 31
0.0
  0
LINE
  8
0
 62
     250
 10
1075.23
 20
605.857
 30
0.0
 11
1075.64
 21
604.075
 31
0.0
  0
LINE
  8
0
 62
     250
 10
1075.64
 20
604.075
 30
0.0
 11
1076.66
 21
598.678
 31
0.0
  0
LINE
  8
0
 62
     250
 10
1076.66
 20
598.678
 30
0.0
 11
1078.12
 21
589.647
 31
0.0
  0
LINE
  8
0
 62
     250
 10
1078.12
 20
589.647
 30
0.0
 11
1079.56
 21
579.212
 31
0.0
  0
LINE
  8
0
 62
     250
 10
1079.56
 20
579.212
 30
0.0
 11
1080.96
 21
567.821
 31
0.0
  0
LINE
  8
0
 62
     250
 10
1080.96
 20
567.821
 30
0.0
 11
1082.29
 21
555.921
 31
0.0
  0
LINE
  8
0
 62
     250
 10
1082.29
 20
555.921
 30
0.0
 11
1083.53
 21
543.969
 31
0.0
  0
LINE
  8
0
 62
     250
 10
1083.53
 20
543.969
 30
0.0
 11
1084.64
 21
532.405
 31
0.0
  0
LINE
  8
0
 62
     250
 10
1084.64
 20
532.405
 30
0.0
 11
1085.37
 21
524.365
 31
0.0
  0
LINE
  8
0
 62
     250
 10
1085.37
 20
524.365
 30
0.0
 11
1085.6
 21
521.684
 31
0.0
  0
LINE
  8
0
 62
     250
 10
1085.6
 20
521.684
 30
0.0
 11
1085.73
 21
520.199
 31
0.0
  0
LINE
  8
0
 62
     250
 10
1085.73
 20
520.199
 30
0.0
 11
1086.04
 21
515.733
 31
0.0
  0
LINE
  8
0
 62
     250
 10
1086.04
 20
515.733
 30
0.0
 11
1086.48
 21
508.162
 31
0.0
  0
LINE
  8
0
 62
     250
 10
1086.48
 20
508.162
 30
0.0
 11
1086.92
 21
499.198
 31
0.0
  0
LINE
  8
0
 62
     250
 10
1086.92
 20
499.198
 30
0.0
 11
1087.35
 21
489.056
 31
0.0
  0
LINE
  8
0
 62
     250
 10
1087.35
 20
489.056
 30
0.0
 11
1087.78
 21
477.95
 31
0.0
  0
LINE
  8
0
 62
     250
 10
1087.78
 20
477.95
 30
0.0
 11
1088.19
 21
466.104
 31
0.0
  0
LINE
  8
0
 62
     250
 10
1088.19
 20
466.104
 30
0.0
 11
1088.58
 21
453.729
 31
0.0
  0
LINE
  8
0
 62
     250
 10
1088.58
 20
453.729
 30
0.0
 11
1088.94
 21
441.046
 31
0.0
  0
LINE
  8
0
 62
     250
 10
1088.94
 20
441.046
 30
0.0
 11
1089.28
 21
428.272
 31
0.0
  0
LINE
  8
0
 62
     250
 10
1089.28
 20
428.272
 30
0.0
 11
1089.59
 21
415.622
 31
0.0
  0
LINE
  8
0
 62
     250
 10
1089.59
 20
415.622
 30
0.0
 11
1089.86
 21
403.313
 31
0.0
  0
LINE
  8
0
 62
     250
 10
1089.86
 20
403.313
 30
0.0
 11
1090.1
 21
391.569
 31
0.0
  0
LINE
  8
0
 62
     250
 10
1090.1
 20
391.569
 30
0.0
 11
1090.28
 21
380.605
 31
0.0
  0
LINE
  8
0
 62
     250
 10
1090.28
 20
380.605
 30
0.0
 11
1090.43
 21
370.632
 31
0.0
  0
LINE
  8
0
 62
     250
 10
1090.43
 20
370.632
 30
0.0
 11
1090.51
 21
361.876
 31
0.0
  0
LINE
  8
0
 62
     250
 10
1090.51
 20
361.876
 30
0.0
 11
1090.54
 21
356.38
 31
0.0
  0
LINE
  8
0
 62
     250
 10
1090.54
 20
356.38
 30
0.0
 11
1090.54
 21
354.545
 31
0.0
  0
LINE
  8
0
 62
     250
 10
452.067
 20
354.545
 30
0.0
 11
452.067
 21
355.942
 31
0.0
  0
LINE
  8
0
 62
     250
 10
452.067
 20
355.942
 30
0.0
 11
452.092
 21
360.126
 31
0.0
  0
LINE
  8
0
 62
     250
 10
452.092
 20
360.126
 30
0.0
 11
452.162
 21
366.921
 31
0.0
  0
LINE
  8
0
 62
     250
 10
452.162
 20
366.921
 30
0.0
 11
452.279
 21
374.763
 31
0.0
  0
LINE
  8
0
 62
     250
 10
452.279
 20
374.763
 30
0.0
 11
452.438
 21
383.48
 31
0.0
  0
LINE
  8
0
 62
     250
 10
452.438
 20
383.48
 30
0.0
 11
452.639
 21
392.91
 31
0.0
  0
LINE
  8
0
 62
     250
 10
452.639
 20
392.91
 30
0.0
 11
452.871
 21
402.879
 31
0.0
  0
LINE
  8
0
 62
     250
 10
452.871
 20
402.879
 30
0.0
 11
453.143
 21
413.223
 31
0.0
  0
LINE
  8
0
 62
     250
 10
453.143
 20
413.223
 30
0.0
 11
453.446
 21
423.767
 31
0.0
  0
LINE
  8
0
 62
     250
 10
453.446
 20
423.767
 30
0.0
 11
453.778
 21
434.354
 31
0.0
  0
LINE
  8
0
 62
     250
 10
453.778
 20
434.354
 30
0.0
 11
454.138
 21
444.807
 31
0.0
  0
LINE
  8
0
 62
     250
 10
454.138
 20
444.807
 30
0.0
 11
454.522
 21
454.963
 31
0.0
  0
LINE
  8
0
 62
     250
 10
454.522
 20
454.963
 30
0.0
 11
454.928
 21
464.651
 31
0.0
  0
LINE
  8
0
 62
     250
 10
454.928
 20
464.651
 30
0.0
 11
455.355
 21
473.703
 31
0.0
  0
LINE
  8
0
 62
     250
 10
455.355
 20
473.703
 30
0.0
 11
455.796
 21
481.951
 31
0.0
  0
LINE
  8
0
 62
     250
 10
455.796
 20
481.951
 30
0.0
 11
456.251
 21
489.229
 31
0.0
  0
LINE
  8
0
 62
     250
 10
456.251
 20
489.229
 30
0.0
 11
456.586
 21
493.832
 31
0.0
  0
LINE
  8
0
 62
     250
 10
456.586
 20
493.832
 30
0.0
 11
456.72
 21
495.364
 31
0.0
  0
LINE
  8
0
 62
     250
 10
456.72
 20
495.364
 30
0.0
 11
456.84
 21
496.803
 31
0.0
  0
LINE
  8
0
 62
     250
 10
456.84
 20
496.803
 30
0.0
 11
457.264
 21
501.11
 31
0.0
  0
LINE
  8
0
 62
     250
 10
457.264
 20
501.11
 30
0.0
 11
457.948
 21
507.273
 31
0.0
  0
LINE
  8
0
 62
     250
 10
457.948
 20
507.273
 30
0.0
 11
458.756
 21
513.761
 31
0.0
  0
LINE
  8
0
 62
     250
 10
458.756
 20
513.761
 30
0.0
 11
459.677
 21
520.492
 31
0.0
  0
LINE
  8
0
 62
     250
 10
459.677
 20
520.492
 30
0.0
 11
460.7
 21
527.375
 31
0.0
  0
LINE
  8
0
 62
     250
 10
460.7
 20
527.375
 30
0.0
 11
461.811
 21
534.324
 31
0.0
  0
LINE
  8
0
 62
     250
 10
461.811
 20
534.324
 30
0.0
 11
463
 21
541.256
 31
0.0
  0
LINE
  8
0
 62
     250
 10
463
 20
541.256
 30
0.0
 11
464.252
 21
548.079
 31
0.0
  0
LINE
  8
0
 62
     250
 10
464.252
 20
548.079
 30
0.0
 11
465.557
 21
554.704
 31
0.0
  0
LINE
  8
0
 62
     250
 10
465.557
 20
554.704
 30
0.0
 11
466.901
 21
561.054
 31
0.0
  0
LINE
  8
0
 62
     250
 10
466.901
 20
561.054
 30
0.0
 11
468.277
 21
567.034
 31
0.0
  0
LINE
  8
0
 62
     250
 10
468.277
 20
567.034
 30
0.0
 11
469.664
 21
572.558
 31
0.0
  0
LINE
  8
0
 62
     250
 10
469.664
 20
572.558
 30
0.0
 11
471.057
 21
577.543
 31
0.0
  0
LINE
  8
0
 62
     250
 10
471.057
 20
577.543
 30
0.0
 11
472.44
 21
581.896
 31
0.0
  0
LINE
  8
0
 62
     250
 10
472.44
 20
581.896
 30
0.0
 11
473.802
 21
585.537
 31
0.0
  0
LINE
  8
0
 62
     250
 10
473.802
 20
585.537
 30
0.0
 11
474.758
 21
587.685
 31
0.0
  0
LINE
  8
0
 62
     250
 10
474.758
 20
587.685
 30
0.0
 11
475.132
 21
588.373
 31
0.0
  0
LINE
  8
0
 62
     250
 10
475.132
 20
588.373
 30
0.0
 11
475.848
 21
589.686
 31
0.0
  0
LINE
  8
0
 62
     250
 10
475.848
 20
589.686
 30
0.0
 11
478.335
 21
593.443
 31
0.0
  0
LINE
  8
0
 62
     250
 10
478.335
 20
593.443
 30
0.0
 11
482.66
 21
598.914
 31
0.0
  0
LINE
  8
0
 62
     250
 10
482.66
 20
598.914
 30
0.0
 11
488.029
 21
604.636
 31
0.0
  0
LINE
  8
0
 62
     250
 10
488.029
 20
604.636
 30
0.0
 11
494.369
 21
610.464
 31
0.0
  0
LINE
  8
0
 62
     250
 10
494.369
 20
610.464
 30
0.0
 11
501.597
 21
616.236
 31
0.0
  0
LINE
  8
0
 62
     250
 10
501.597
 20
616.236
 30
0.0
 11
509.637
 21
621.806
 31
0.0
  0
LINE
  8
0
 62
     250
 10
509.637
 20
621.806
 30
0.0
 11
518.418
 21
627.017
 31
0.0
  0
LINE
  8
0
 62
     250
 10
518.418
 20
627.017
 30
0.0
 11
525.452
 21
630.633
 31
0.0
  0
LINE
  8
0
 62
     250
 10
525.452
 20
630.633
 30
0.0
 11
527.854
 21
631.716
 31
0.0
  0
LINE
  8
0
 62
     250
 10
527.854
 20
631.716
 30
0.0
 11
529.117
 21
632.287
 31
0.0
  0
LINE
  8
0
 62
     250
 10
529.117
 20
632.287
 30
0.0
 11
532.941
 21
633.949
 31
0.0
  0
LINE
  8
0
 62
     250
 10
532.941
 20
633.949
 30
0.0
 11
538.416
 21
636.224
 31
0.0
  0
LINE
  8
0
 62
     250
 10
538.416
 20
636.224
 30
0.0
 11
544.223
 21
638.524
 31
0.0
  0
LINE
  8
0
 62
     250
 10
544.223
 20
638.524
 30
0.0
 11
550.291
 21
640.817
 31
0.0
  0
LINE
  8
0
 62
     250
 10
550.291
 20
640.817
 30
0.0
 11
556.563
 21
643.079
 31
0.0
  0
LINE
  8
0
 62
     250
 10
556.563
 20
643.079
 30
0.0
 11
562.97
 21
645.283
 31
0.0
  0
LINE
  8
0
 62
     250
 10
562.97
 20
645.283
 30
0.0
 11
569.454
 21
647.404
 31
0.0
  0
LINE
  8
0
 62
     250
 10
569.454
 20
647.404
 30
0.0
 11
575.949
 21
649.411
 31
0.0
  0
LINE
  8
0
 62
     250
 10
575.949
 20
649.411
 30
0.0
 11
582.39
 21
651.284
 31
0.0
  0
LINE
  8
0
 62
     250
 10
582.39
 20
651.284
 30
0.0
 11
588.716
 21
652.992
 31
0.0
  0
LINE
  8
0
 62
     250
 10
588.716
 20
652.992
 30
0.0
 11
594.861
 21
654.509
 31
0.0
  0
LINE
  8
0
 62
     250
 10
594.861
 20
654.509
 30
0.0
 11
600.766
 21
655.807
 31
0.0
  0
LINE
  8
0
 62
     250
 10
600.766
 20
655.807
 30
0.0
 11
606.365
 21
656.865
 31
0.0
  0
LINE
  8
0
 62
     250
 10
606.365
 20
656.865
 30
0.0
 11
611.597
 21
657.655
 31
0.0
  0
LINE
  8
0
 62
     250
 10
611.597
 20
657.655
 30
0.0
 11
616.395
 21
658.146
 31
0.0
  0
LINE
  8
0
 62
     250
 10
616.395
 20
658.146
 30
0.0
 11
619.622
 21
658.315
 31
0.0
  0
LINE
  8
0
 62
     250
 10
619.622
 20
658.315
 30
0.0
 11
620.698
 21
658.315
 31
0.0
  0
LINE
  8
0
 62
     250
 10
620.698
 20
658.315
 30
0.0
 11
622.734
 21
658.315
 31
0.0
  0
LINE
  8
0
 62
     250
 10
622.734
 20
658.315
 30
0.0
 11
628.837
 21
658.029
 31
0.0
  0
LINE
  8
0
 62
     250
 10
628.837
 20
658.029
 30
0.0
 11
637
 21
657.229
 31
0.0
  0
LINE
  8
0
 62
     250
 10
637
 20
657.229
 30
0.0
 11
645.015
 21
656.011
 31
0.0
  0
LINE
  8
0
 62
     250
 10
645.015
 20
656.011
 30
0.0
 11
652.706
 21
654.48
 31
0.0
  0
LINE
  8
0
 62
     250
 10
652.706
 20
654.48
 30
0.0
 11
659.896
 21
652.731
 31
0.0
  0
LINE
  8
0
 62
     250
 10
659.896
 20
652.731
 30
0.0
 11
666.408
 21
650.861
 31
0.0
  0
LINE
  8
0
 62
     250
 10
666.408
 20
650.861
 30
0.0
 11
672.073
 21
648.97
 31
0.0
  0
LINE
  8
0
 62
     250
 10
672.073
 20
648.97
 30
0.0
 11
675.569
 21
647.647
 31
0.0
  0
LINE
  8
0
 62
     250
 10
675.569
 20
647.647
 30
0.0
 11
676.716
 21
647.157
 31
0.0
  0
LINE
  8
0
 62
     250
 10
676.716
 20
647.157
 30
0.0
 11
677.795
 21
646.695
 31
0.0
  0
LINE
  8
0
 62
     250
 10
677.795
 20
646.695
 30
0.0
 11
680.875
 21
644.934
 31
0.0
  0
LINE
  8
0
 62
     250
 10
680.875
 20
644.934
 30
0.0
 11
685.165
 21
641.851
 31
0.0
  0
LINE
  8
0
 62
     250
 10
685.165
 20
641.851
 30
0.0
 11
689.518
 21
638.069
 31
0.0
  0
LINE
  8
0
 62
     250
 10
689.518
 20
638.069
 30
0.0
 11
693.868
 21
633.741
 31
0.0
  0
LINE
  8
0
 62
     250
 10
693.868
 20
633.741
 30
0.0
 11
698.147
 21
629.017
 31
0.0
  0
LINE
  8
0
 62
     250
 10
698.147
 20
629.017
 30
0.0
 11
702.282
 21
624.057
 31
0.0
  0
LINE
  8
0
 62
     250
 10
702.282
 20
624.057
 30
0.0
 11
706.212
 21
619.016
 31
0.0
  0
LINE
  8
0
 62
     250
 10
706.212
 20
619.016
 30
0.0
 11
708.963
 21
615.297
 31
0.0
  0
LINE
  8
0
 62
     250
 10
708.963
 20
615.297
 30
0.0
 11
709.859
 21
614.045
 31
0.0
  0
LINE
  8
0
 62
     250
 10
709.859
 20
614.045
 30
0.0
 11
711.532
 21
611.706
 31
0.0
  0
LINE
  8
0
 62
     250
 10
711.532
 20
611.706
 30
0.0
 11
716.689
 21
604.795
 31
0.0
  0
LINE
  8
0
 62
     250
 10
716.689
 20
604.795
 30
0.0
 11
723.357
 21
596.558
 31
0.0
  0
LINE
  8
0
 62
     250
 10
723.357
 20
596.558
 30
0.0
 11
730.056
 21
589.298
 31
0.0
  0
LINE
  8
0
 62
     250
 10
730.056
 20
589.298
 30
0.0
 11
735.185
 21
584.468
 31
0.0
  0
LINE
  8
0
 62
     250
 10
735.185
 20
584.468
 30
0.0
 11
736.999
 21
582.979
 31
0.0
  0
LINE
  8
0
 62
     250
 10
736.999
 20
582.979
 30
0.0
 11
737.902
 21
582.235
 31
0.0
  0
LINE
  8
0
 62
     250
 10
737.902
 20
582.235
 30
0.0
 11
740.833
 21
580.259
 31
0.0
  0
LINE
  8
0
 62
     250
 10
740.833
 20
580.259
 30
0.0
 11
745.271
 21
577.924
 31
0.0
  0
LINE
  8
0
 62
     250
 10
745.271
 20
577.924
 30
0.0
 11
750.38
 21
575.927
 31
0.0
  0
LINE
  8
0
 62
     250
 10
750.38
 20
575.927
 30
0.0
 11
756.236
 21
574.213
 31
0.0
  0
LINE
  8
0
 62
     250
 10
756.236
 20
574.213
 30
0.0
 11
762.907
 21
572.735
 31
0.0
  0
LINE
  8
0
 62
     250
 10
762.907
 20
572.735
 30
0.0
 11
770.467
 21
571.444
 31
0.0
  0
LINE
  8
0
 62
     250
 10
770.467
 20
571.444
 30
0.0
 11
778.993
 21
570.286
 31
0.0
  0
LINE
  8
0
 62
     250
 10
778.993
 20
570.286
 30
0.0
 11
786.162
 21
569.461
 31
0.0
  0
LINE
  8
0
 62
     250
 10
786.162
 20
569.461
 30
0.0
 11
788.557
 21
569.214
 31
0.0
  0
LINE
  8
0
 62
     250
 10
788.557
 20
569.214
 30
0.0
 11
791.097
 21
568.949
 31
0.0
  0
LINE
  8
0
 62
     250
 10
791.097
 20
568.949
 30
0.0
 11
798.731
 21
568.219
 31
0.0
  0
LINE
  8
0
 62
     250
 10
798.731
 20
568.219
 30
0.0
 11
808.902
 21
567.33
 31
0.0
  0
LINE
  8
0
 62
     250
 10
808.902
 20
567.33
 30
0.0
 11
818.847
 21
566.543
 31
0.0
  0
LINE
  8
0
 62
     250
 10
818.847
 20
566.543
 30
0.0
 11
828.34
 21
565.866
 31
0.0
  0
LINE
  8
0
 62
     250
 10
828.34
 20
565.866
 30
0.0
 11
837.159
 21
565.291
 31
0.0
  0
LINE
  8
0
 62
     250
 10
837.159
 20
565.291
 30
0.0
 11
845.086
 21
564.818
 31
0.0
  0
LINE
  8
0
 62
     250
 10
845.086
 20
564.818
 30
0.0
 11
851.895
 21
564.452
 31
0.0
  0
LINE
  8
0
 62
     250
 10
851.895
 20
564.452
 30
0.0
 11
855.998
 21
564.25
 31
0.0
  0
LINE
  8
0
 62
     250
 10
855.998
 20
564.25
 30
0.0
 11
857.366
 21
564.19
 31
0.0
  0
LINE
  8
0
 62
     250
 10
857.366
 20
564.19
 30
0.0
 11
858.651
 21
564.134
 31
0.0
  0
LINE
  8
0
 62
     250
 10
858.651
 20
564.134
 30
0.0
 11
862.506
 21
563.792
 31
0.0
  0
LINE
  8
0
 62
     250
 10
862.506
 20
563.792
 30
0.0
 11
868.221
 21
563.083
 31
0.0
  0
LINE
  8
0
 62
     250
 10
868.221
 20
563.083
 30
0.0
 11
874.123
 21
562.18
 31
0.0
  0
LINE
  8
0
 62
     250
 10
874.123
 20
562.18
 30
0.0
 11
879.824
 21
561.192
 31
0.0
  0
LINE
  8
0
 62
     250
 10
879.824
 20
561.192
 30
0.0
 11
884.936
 21
560.229
 31
0.0
  0
LINE
  8
0
 62
     250
 10
884.936
 20
560.229
 30
0.0
 11
889.063
 21
559.403
 31
0.0
  0
LINE
  8
0
 62
     250
 10
889.063
 20
559.403
 30
0.0
 11
891.829
 21
558.828
 31
0.0
  0
LINE
  8
0
 62
     250
 10
891.829
 20
558.828
 30
0.0
 11
892.838
 21
558.609
 31
0.0
  0
LINE
  8
0
 62
     250
 10
892.838
 20
558.609
 30
0.0
 11
892.838
 21
558.609
 31
0.0
  0
LINE
  8
0
 62
     250
 10
736.999
 20
582.979
 30
0.0
 11
736.999
 21
582.979
 31
0.0
  0
LINE
  8
0
 62
     250
 10
736.999
 20
582.979
 30
0.0
 11
736.145
 21
582.602
 31
0.0
  0
LINE
  8
0
 62
     250
 10
736.145
 20
582.602
 30
0.0
 11
733.767
 21
581.494
 31
0.0
  0
LINE
  8
0
 62
     250
 10
733.767
 20
581.494
 30
0.0
 11
730.119
 21
579.684
 31
0.0
  0
LINE
  8
0
 62
     250
 10
730.119
 20
579.684
 30
0.0
 11
725.456
 21
577.201
 31
0.0
  0
LINE
  8
0
 62
     250
 10
725.456
 20
577.201
 30
0.0
 11
720.037
 21
574.079
 31
0.0
  0
LINE
  8
0
 62
     250
 10
720.037
 20
574.079
 30
0.0
 11
714.121
 21
570.343
 31
0.0
  0
LINE
  8
0
 62
     250
 10
714.121
 20
570.343
 30
0.0
 11
707.961
 21
566.032
 31
0.0
  0
LINE
  8
0
 62
     250
 10
707.961
 20
566.032
 30
0.0
 11
703.308
 21
562.434
 31
0.0
  0
LINE
  8
0
 62
     250
 10
703.308
 20
562.434
 30
0.0
 11
701.816
 21
561.167
 31
0.0
  0
LINE
  8
0
 62
     250
 10
701.816
 20
561.167
 30
0.0
 11
700.349
 21
559.925
 31
0.0
  0
LINE
  8
0
 62
     250
 10
700.349
 20
559.925
 30
0.0
 11
696.069
 21
556.041
 31
0.0
  0
LINE
  8
0
 62
     250
 10
696.069
 20
556.041
 30
0.0
 11
690.898
 21
550.848
 31
0.0
  0
LINE
  8
0
 62
     250
 10
690.898
 20
550.848
 30
0.0
 11
686.248
 21
545.476
 31
0.0
  0
LINE
  8
0
 62
     250
 10
686.248
 20
545.476
 30
0.0
 11
682.064
 21
539.821
 31
0.0
  0
LINE
  8
0
 62
     250
 10
682.064
 20
539.821
 30
0.0
 11
678.296
 21
533.774
 31
0.0
  0
LINE
  8
0
 62
     250
 10
678.296
 20
533.774
 30
0.0
 11
674.892
 21
527.226
 31
0.0
  0
LINE
  8
0
 62
     250
 10
674.892
 20
527.226
 30
0.0
 11
671.798
 21
520.069
 31
0.0
  0
LINE
  8
0
 62
     250
 10
671.798
 20
520.069
 30
0.0
 11
669.618
 21
514.184
 31
0.0
  0
LINE
  8
0
 62
     250
 10
669.618
 20
514.184
 30
0.0
 11
668.962
 21
512.198
 31
0.0
  0
LINE
  8
0
 62
     250
 10
668.962
 20
512.198
 30
0.0
 11
668.602
 21
511.104
 31
0.0
  0
LINE
  8
0
 62
     250
 10
668.602
 20
511.104
 30
0.0
 11
667.611
 21
507.795
 31
0.0
  0
LINE
  8
0
 62
     250
 10
667.611
 20
507.795
 30
0.0
 11
666.284
 21
502.899
 31
0.0
  0
LINE
  8
0
 62
     250
 10
666.284
 20
502.899
 30
0.0
 11
664.99
 21
497.59
 31
0.0
  0
LINE
  8
0
 62
     250
 10
664.99
 20
497.59
 30
0.0
 11
663.734
 21
491.934
 31
0.0
  0
LINE
  8
0
 62
     250
 10
663.734
 20
491.934
 30
0.0
 11
662.517
 21
486.015
 31
0.0
  0
LINE
  8
0
 62
     250
 10
662.517
 20
486.015
 30
0.0
 11
661.352
 21
479.905
 31
0.0
  0
LINE
  8
0
 62
     250
 10
661.352
 20
479.905
 30
0.0
 11
660.238
 21
473.671
 31
0.0
  0
LINE
  8
0
 62
     250
 10
660.238
 20
473.671
 30
0.0
 11
659.186
 21
467.395
 31
0.0
  0
LINE
  8
0
 62
     250
 10
659.186
 20
467.395
 30
0.0
 11
658.195
 21
461.155
 31
0.0
  0
LINE
  8
0
 62
     250
 10
658.195
 20
461.155
 30
0.0
 11
657.278
 21
455.013
 31
0.0
  0
LINE
  8
0
 62
     250
 10
657.278
 20
455.013
 30
0.0
 11
656.435
 21
449.058
 31
0.0
  0
LINE
  8
0
 62
     250
 10
656.435
 20
449.058
 30
0.0
 11
655.673
 21
443.353
 31
0.0
  0
LINE
  8
0
 62
     250
 10
655.673
 20
443.353
 30
0.0
 11
654.999
 21
437.981
 31
0.0
  0
LINE
  8
0
 62
     250
 10
654.999
 20
437.981
 30
0.0
 11
654.417
 21
433.01
 31
0.0
  0
LINE
  8
0
 62
     250
 10
654.417
 20
433.01
 30
0.0
 11
653.934
 21
428.519
 31
0.0
  0
LINE
  8
0
 62
     250
 10
653.934
 20
428.519
 30
0.0
 11
653.641
 21
425.566
 31
0.0
  0
LINE
  8
0
 62
     250
 10
653.641
 20
425.566
 30
0.0
 11
653.553
 21
424.582
 31
0.0
  0
LINE
  8
0
 62
     250
 10
653.553
 20
424.582
 30
0.0
 11
653.369
 21
422.554
 31
0.0
  0
LINE
  8
0
 62
     250
 10
653.369
 20
422.554
 30
0.0
 11
652.939
 21
416.458
 31
0.0
  0
LINE
  8
0
 62
     250
 10
652.939
 20
416.458
 30
0.0
 11
652.406
 21
407.007
 31
0.0
  0
LINE
  8
0
 62
     250
 10
652.406
 20
407.007
 30
0.0
 11
651.958
 21
396.808
 31
0.0
  0
LINE
  8
0
 62
     250
 10
651.958
 20
396.808
 30
0.0
 11
651.588
 21
386.426
 31
0.0
  0
LINE
  8
0
 62
     250
 10
651.588
 20
386.426
 30
0.0
 11
651.302
 21
376.439
 31
0.0
  0
LINE
  8
0
 62
     250
 10
651.302
 20
376.439
 30
0.0
 11
651.097
 21
367.411
 31
0.0
  0
LINE
  8
0
 62
     250
 10
651.097
 20
367.411
 30
0.0
 11
650.977
 21
359.925
 31
0.0
  0
LINE
  8
0
 62
     250
 10
650.977
 20
359.925
 30
0.0
 11
650.935
 21
355.889
 31
0.0
  0
LINE
  8
0
 62
     250
 10
650.935
 20
355.889
 30
0.0
 11
650.935
 21
354.545
 31
0.0
  0
LINE
  8
0
 62
     250
 10
473.146
 20
584.606
 30
0.0
 11
473.146
 21
584.606
 31
0.0
  0
LINE
  8
0
 62
     250
 10
473.146
 20
584.606
 30
0.0
 11
472.659
 21
584.775
 31
0.0
  0
LINE
  8
0
 62
     250
 10
472.659
 20
584.775
 30
0.0
 11
471.265
 21
585.23
 31
0.0
  0
LINE
  8
0
 62
     250
 10
471.265
 20
585.23
 30
0.0
 11
469.036
 21
585.886
 31
0.0
  0
LINE
  8
0
 62
     250
 10
469.036
 20
585.886
 30
0.0
 11
466.058
 21
586.662
 31
0.0
  0
LINE
  8
0
 62
     250
 10
466.058
 20
586.662
 30
0.0
 11
462.411
 21
587.481
 31
0.0
  0
LINE
  8
0
 62
     250
 10
462.411
 20
587.481
 30
0.0
 11
458.181
 21
588.257
 31
0.0
  0
LINE
  8
0
 62
     250
 10
458.181
 20
588.257
 30
0.0
 11
453.446
 21
588.906
 31
0.0
  0
LINE
  8
0
 62
     250
 10
453.446
 20
588.906
 30
0.0
 11
449.576
 21
589.273
 31
0.0
  0
LINE
  8
0
 62
     250
 10
449.576
 20
589.273
 30
0.0
 11
448.285
 21
589.351
 31
0.0
  0
LINE
  8
0
 62
     250
 10
448.285
 20
589.351
 30
0.0
 11
446.938
 21
589.428
 31
0.0
  0
LINE
  8
0
 62
     250
 10
446.938
 20
589.428
 30
0.0
 11
442.853
 21
589.107
 31
0.0
  0
LINE
  8
0
 62
     250
 10
442.853
 20
589.107
 30
0.0
 11
437.339
 21
587.862
 31
0.0
  0
LINE
  8
0
 62
     250
 10
437.339
 20
587.862
 30
0.0
 11
431.899
 21
585.766
 31
0.0
  0
LINE
  8
0
 62
     250
 10
431.899
 20
585.766
 30
0.0
 11
426.681
 21
582.983
 31
0.0
  0
LINE
  8
0
 62
     250
 10
426.681
 20
582.983
 30
0.0
 11
421.838
 21
579.67
 31
0.0
  0
LINE
  8
0
 62
     250
 10
421.838
 20
579.67
 30
0.0
 11
417.52
 21
575.991
 31
0.0
  0
LINE
  8
0
 62
     250
 10
417.52
 20
575.991
 30
0.0
 11
413.879
 21
572.093
 31
0.0
  0
LINE
  8
0
 62
     250
 10
413.879
 20
572.093
 30
0.0
 11
411.692
 21
569.182
 31
0.0
  0
LINE
  8
0
 62
     250
 10
411.692
 20
569.182
 30
0.0
 11
411.071
 21
568.142
 31
0.0
  0
LINE
  8
0
 62
     250
 10
411.071
 20
568.142
 30
0.0
 11
410.485
 21
567.161
 31
0.0
  0
LINE
  8
0
 62
     250
 10
410.485
 20
567.161
 30
0.0
 11
408.852
 21
564.138
 31
0.0
  0
LINE
  8
0
 62
     250
 10
408.852
 20
564.138
 30
0.0
 11
406.89
 21
559.922
 31
0.0
  0
LINE
  8
0
 62
     250
 10
406.89
 20
559.922
 30
0.0
 11
405.197
 21
555.438
 31
0.0
  0
LINE
  8
0
 62
     250
 10
405.197
 20
555.438
 30
0.0
 11
403.786
 21
550.616
 31
0.0
  0
LINE
  8
0
 62
     250
 10
403.786
 20
550.616
 30
0.0
 11
402.664
 21
545.398
 31
0.0
  0
LINE
  8
0
 62
     250
 10
402.664
 20
545.398
 30
0.0
 11
401.853
 21
539.715
 31
0.0
  0
LINE
  8
0
 62
     250
 10
401.853
 20
539.715
 30
0.0
 11
401.355
 21
533.506
 31
0.0
  0
LINE
  8
0
 62
     250
 10
401.355
 20
533.506
 30
0.0
 11
401.186
 21
528.408
 31
0.0
  0
LINE
  8
0
 62
     250
 10
401.186
 20
528.408
 30
0.0
 11
401.186
 21
526.708
 31
0.0
  0
LINE
  8
0
 62
     250
 10
401.186
 20
526.708
 30
0.0
 11
401.186
 21
524.838
 31
0.0
  0
LINE
  8
0
 62
     250
 10
401.186
 20
524.838
 30
0.0
 11
401.673
 21
519.229
 31
0.0
  0
LINE
  8
0
 62
     250
 10
401.673
 20
519.229
 30
0.0
 11
402.989
 21
511.193
 31
0.0
  0
LINE
  8
0
 62
     250
 10
402.989
 20
511.193
 30
0.0
 11
404.911
 21
502.846
 31
0.0
  0
LINE
  8
0
 62
     250
 10
404.911
 20
502.846
 30
0.0
 11
407.218
 21
494.446
 31
0.0
  0
LINE
  8
0
 62
     250
 10
407.218
 20
494.446
 30
0.0
 11
409.688
 21
486.241
 31
0.0
  0
LINE
  8
0
 62
     250
 10
409.688
 20
486.241
 30
0.0
 11
412.101
 21
478.483
 31
0.0
  0
LINE
  8
0
 62
     250
 10
412.101
 20
478.483
 30
0.0
 11
414.235
 21
471.428
 31
0.0
  0
LINE
  8
0
 62
     250
 10
414.235
 20
471.428
 30
0.0
 11
415.505
 21
466.859
 31
0.0
  0
LINE
  8
0
 62
     250
 10
415.505
 20
466.859
 30
0.0
 11
415.869
 21
465.321
 31
0.0
  0
LINE
  8
0
 62
     250
 10
415.869
 20
465.321
 30
0.0
 11
416.059
 21
464.506
 31
0.0
  0
LINE
  8
0
 62
     250
 10
416.059
 20
464.506
 30
0.0
 11
416.5
 21
462.019
 31
0.0
  0
LINE
  8
0
 62
     250
 10
416.5
 20
462.019
 30
0.0
 11
417.096
 21
457.736
 31
0.0
  0
LINE
  8
0
 62
     250
 10
417.096
 20
457.736
 30
0.0
 11
417.647
 21
452.572
 31
0.0
  0
LINE
  8
0
 62
     250
 10
417.647
 20
452.572
 30
0.0
 11
418.158
 21
446.638
 31
0.0
  0
LINE
  8
0
 62
     250
 10
418.158
 20
446.638
 30
0.0
 11
418.627
 21
440.044
 31
0.0
  0
LINE
  8
0
 62
     250
 10
418.627
 20
440.044
 30
0.0
 11
419.058
 21
432.897
 31
0.0
  0
LINE
  8
0
 62
     250
 10
419.058
 20
432.897
 30
0.0
 11
419.446
 21
425.298
 31
0.0
  0
LINE
  8
0
 62
     250
 10
419.446
 20
425.298
 30
0.0
 11
419.791
 21
417.361
 31
0.0
  0
LINE
  8
0
 62
     250
 10
419.791
 20
417.361
 30
0.0
 11
420.102
 21
409.194
 31
0.0
  0
LINE
  8
0
 62
     250
 10
420.102
 20
409.194
 30
0.0
 11
420.366
 21
400.9
 31
0.0
  0
LINE
  8
0
 62
     250
 10
420.366
 20
400.9
 30
0.0
 11
420.592
 21
392.592
 31
0.0
  0
LINE
  8
0
 62
     250
 10
420.592
 20
392.592
 30
0.0
 11
420.776
 21
384.373
 31
0.0
  0
LINE
  8
0
 62
     250
 10
420.776
 20
384.373
 30
0.0
 11
420.917
 21
376.35
 31
0.0
  0
LINE
  8
0
 62
     250
 10
420.917
 20
376.35
 30
0.0
 11
421.019
 21
368.635
 31
0.0
  0
LINE
  8
0
 62
     250
 10
421.019
 20
368.635
 30
0.0
 11
421.083
 21
361.329
 31
0.0
  0
LINE
  8
0
 62
     250
 10
421.083
 20
361.329
 30
0.0
 11
421.104
 21
356.242
 31
0.0
  0
LINE
  8
0
 62
     250
 10
421.104
 20
356.242
 30
0.0
 11
421.104
 21
354.545
 31
0.0
  0
LINE
  8
0
 62
     250
 10
819.471
 20
569.602
 30
0.0
 11
784.92
 21
569.602
 31
0.0
  0
LINE
  8
0
 62
     250
 10
426.646
 20
125.329
 30
0.0
 11
426.646
 21
125.329
 31
0.0
  0
LINE
  8
0
 62
     250
 10
426.646
 20
125.329
 30
0.0
 11
425.824
 21
125.003
 31
0.0
  0
LINE
  8
0
 62
     250
 10
425.824
 20
125.003
 30
0.0
 11
423.612
 21
124.138
 31
0.0
  0
LINE
  8
0
 62
     250
 10
423.612
 20
124.138
 30
0.0
 11
420.374
 21
122.902
 31
0.0
  0
LINE
  8
0
 62
     250
 10
420.374
 20
122.902
 30
0.0
 11
416.472
 21
121.462
 31
0.0
  0
LINE
  8
0
 62
     250
 10
416.472
 20
121.462
 30
0.0
 11
412.281
 21
119.987
 31
0.0
  0
LINE
  8
0
 62
     250
 10
412.281
 20
119.987
 30
0.0
 11
408.164
 21
118.646
 31
0.0
  0
LINE
  8
0
 62
     250
 10
408.164
 20
118.646
 30
0.0
 11
404.484
 21
117.606
 31
0.0
  0
LINE
  8
0
 62
     250
 10
404.484
 20
117.606
 30
0.0
 11
402.336
 21
117.122
 31
0.0
  0
LINE
  8
0
 62
     250
 10
402.336
 20
117.122
 30
0.0
 11
401.613
 21
117.035
 31
0.0
  0
LINE
  8
0
 62
     250
 10
401.613
 20
117.035
 30
0.0
 11
400.329
 21
116.882
 31
0.0
  0
LINE
  8
0
 62
     250
 10
400.329
 20
116.882
 30
0.0
 11
396.473
 21
116.433
 31
0.0
  0
LINE
  8
0
 62
     250
 10
396.473
 20
116.433
 30
0.0
 11
390.419
 21
115.883
 31
0.0
  0
LINE
  8
0
 62
     250
 10
390.419
 20
115.883
 30
0.0
 11
383.434
 21
115.595
 31
0.0
  0
LINE
  8
0
 62
     250
 10
383.434
 20
115.595
 30
0.0
 11
377.479
 21
115.663
 31
0.0
  0
LINE
  8
0
 62
     250
 10
377.479
 20
115.663
 30
0.0
 11
375.5
 21
115.777
 31
0.0
  0
LINE
  8
0
 62
     250
 10
375.5
 20
115.777
 30
0.0
 11
374.347
 21
115.845
 31
0.0
  0
LINE
  8
0
 62
     250
 10
374.347
 20
115.845
 30
0.0
 11
370.889
 21
116.083
 31
0.0
  0
LINE
  8
0
 62
     250
 10
370.889
 20
116.083
 30
0.0
 11
365.615
 21
116.497
 31
0.0
  0
LINE
  8
0
 62
     250
 10
365.615
 20
116.497
 30
0.0
 11
359.914
 21
117.001
 31
0.0
  0
LINE
  8
0
 62
     250
 10
359.914
 20
117.001
 30
0.0
 11
354.013
 21
117.578
 31
0.0
  0
LINE
  8
0
 62
     250
 10
354.013
 20
117.578
 30
0.0
 11
348.139
 21
118.209
 31
0.0
  0
LINE
  8
0
 62
     250
 10
348.139
 20
118.209
 30
0.0
 11
342.523
 21
118.878
 31
0.0
  0
LINE
  8
0
 62
     250
 10
342.523
 20
118.878
 30
0.0
 11
337.391
 21
119.564
 31
0.0
  0
LINE
  8
0
 62
     250
 10
337.391
 20
119.564
 30
0.0
 11
334.075
 21
120.063
 31
0.0
  0
LINE
  8
0
 62
     250
 10
334.075
 20
120.063
 30
0.0
 11
332.975
 21
120.25
 31
0.0
  0
LINE
  8
0
 62
     250
 10
332.975
 20
120.25
 30
0.0
 11
331.844
 21
120.445
 31
0.0
  0
LINE
  8
0
 62
     250
 10
331.844
 20
120.445
 30
0.0
 11
328.448
 21
121.014
 31
0.0
  0
LINE
  8
0
 62
     250
 10
328.448
 20
121.014
 30
0.0
 11
323.052
 21
121.911
 31
0.0
  0
LINE
  8
0
 62
     250
 10
323.052
 20
121.911
 30
0.0
 11
317.115
 21
122.902
 31
0.0
  0
LINE
  8
0
 62
     250
 10
317.115
 20
122.902
 30
0.0
 11
310.965
 21
123.949
 31
0.0
  0
LINE
  8
0
 62
     250
 10
310.965
 20
123.949
 30
0.0
 11
304.932
 21
125.011
 31
0.0
  0
LINE
  8
0
 62
     250
 10
304.932
 20
125.011
 30
0.0
 11
299.344
 21
126.049
 31
0.0
  0
LINE
  8
0
 62
     250
 10
299.344
 20
126.049
 30
0.0
 11
294.53
 21
127.022
 31
0.0
  0
LINE
  8
0
 62
     250
 10
294.53
 20
127.022
 30
0.0
 11
291.739
 21
127.648
 31
0.0
  0
LINE
  8
0
 62
     250
 10
291.739
 20
127.648
 30
0.0
 11
290.818
 21
127.89
 31
0.0
  0
LINE
  8
0
 62
     250
 10
290.818
 20
127.89
 30
0.0
 11
290.098
 21
128.081
 31
0.0
  0
LINE
  8
0
 62
     250
 10
290.098
 20
128.081
 30
0.0
 11
287.93
 21
128.614
 31
0.0
  0
LINE
  8
0
 62
     250
 10
287.93
 20
128.614
 30
0.0
 11
285.162
 21
129.246
 31
0.0
  0
LINE
  8
0
 62
     250
 10
285.162
 20
129.246
 30
0.0
 11
282.201
 21
129.895
 31
0.0
  0
LINE
  8
0
 62
     250
 10
282.201
 20
129.895
 30
0.0
 11
278.739
 21
130.663
 31
0.0
  0
LINE
  8
0
 62
     250
 10
278.739
 20
130.663
 30
0.0
 11
274.46
 21
131.659
 31
0.0
  0
LINE
  8
0
 62
     250
 10
274.46
 20
131.659
 30
0.0
 11
269.057
 21
132.989
 31
0.0
  0
LINE
  8
0
 62
     250
 10
269.057
 20
132.989
 30
0.0
 11
262.216
 21
134.757
 31
0.0
  0
LINE
  8
0
 62
     250
 10
262.216
 20
134.757
 30
0.0
 11
255.771
 21
136.482
 31
0.0
  0
LINE
  8
0
 62
     250
 10
255.771
 20
136.482
 30
0.0
 11
253.626
 21
137.069
 31
0.0
  0
LINE
  8
0
 62
     250
 10
253.626
 20
137.069
 30
0.0
 11
251.138
 21
137.752
 31
0.0
  0
LINE
  8
0
 62
     250
 10
251.138
 20
137.752
 30
0.0
 11
243.691
 21
139.863
 31
0.0
  0
LINE
  8
0
 62
     250
 10
243.691
 20
139.863
 30
0.0
 11
233.157
 21
142.976
 31
0.0
  0
LINE
  8
0
 62
     250
 10
233.157
 20
142.976
 30
0.0
 11
222.229
 21
146.377
 31
0.0
  0
LINE
  8
0
 62
     250
 10
222.229
 20
146.377
 30
0.0
 11
211.111
 21
150.033
 31
0.0
  0
LINE
  8
0
 62
     250
 10
211.111
 20
150.033
 30
0.0
 11
200.006
 21
153.913
 31
0.0
  0
LINE
  8
0
 62
     250
 10
200.006
 20
153.913
 30
0.0
 11
189.118
 21
157.982
 31
0.0
  0
LINE
  8
0
 62
     250
 10
189.118
 20
157.982
 30
0.0
 11
178.649
 21
162.209
 31
0.0
  0
LINE
  8
0
 62
     250
 10
178.649
 20
162.209
 30
0.0
 11
171.243
 21
165.425
 31
0.0
  0
LINE
  8
0
 62
     250
 10
171.243
 20
165.425
 30
0.0
 11
168.806
 21
166.559
 31
0.0
  0
LINE
  8
0
 62
     250
 10
168.806
 20
166.559
 30
0.0
 11
166.526
 21
167.619
 31
0.0
  0
LINE
  8
0
 62
     250
 10
166.526
 20
167.619
 30
0.0
 11
159.804
 21
171.045
 31
0.0
  0
LINE
  8
0
 62
     250
 10
159.804
 20
171.045
 30
0.0
 11
151.733
 21
175.708
 31
0.0
  0
LINE
  8
0
 62
     250
 10
151.733
 20
175.708
 30
0.0
 11
144.585
 21
180.571
 31
0.0
  0
LINE
  8
0
 62
     250
 10
144.585
 20
180.571
 30
0.0
 11
138.359
 21
185.656
 31
0.0
  0
LINE
  8
0
 62
     250
 10
138.359
 20
185.656
 30
0.0
 11
133.049
 21
190.982
 31
0.0
  0
LINE
  8
0
 62
     250
 10
133.049
 20
190.982
 30
0.0
 11
128.656
 21
196.573
 31
0.0
  0
LINE
  8
0
 62
     250
 10
128.656
 20
196.573
 30
0.0
 11
125.174
 21
202.449
 31
0.0
  0
LINE
  8
0
 62
     250
 10
125.174
 20
202.449
 30
0.0
 11
123.13
 21
207.047
 31
0.0
  0
LINE
  8
0
 62
     250
 10
123.13
 20
207.047
 30
0.0
 11
122.601
 21
208.63
 31
0.0
  0
LINE
  8
0
 62
     250
 10
122.601
 20
208.63
 30
0.0
 11
122.076
 21
210.198
 31
0.0
  0
LINE
  8
0
 62
     250
 10
122.076
 20
210.198
 30
0.0
 11
120.825
 21
215.01
 31
0.0
  0
LINE
  8
0
 62
     250
 10
120.825
 20
215.01
 30
0.0
 11
119.67
 21
221.379
 31
0.0
  0
LINE
  8
0
 62
     250
 10
119.67
 20
221.379
 30
0.0
 11
119.032
 21
227.61
 31
0.0
  0
LINE
  8
0
 62
     250
 10
119.032
 20
227.61
 30
0.0
 11
118.809
 21
233.577
 31
0.0
  0
LINE
  8
0
 62
     250
 10
118.809
 20
233.577
 30
0.0
 11
118.894
 21
239.152
 31
0.0
  0
LINE
  8
0
 62
     250
 10
118.894
 20
239.152
 30
0.0
 11
119.188
 21
244.205
 31
0.0
  0
LINE
  8
0
 62
     250
 10
119.188
 20
244.205
 30
0.0
 11
119.585
 21
248.609
 31
0.0
  0
LINE
  8
0
 62
     250
 10
119.585
 20
248.609
 30
0.0
 11
119.878
 21
251.331
 31
0.0
  0
LINE
  8
0
 62
     250
 10
119.878
 20
251.331
 30
0.0
 11
119.981
 21
252.236
 31
0.0
  0
LINE
  8
0
 62
     250
 10
119.981
 20
252.236
 30
0.0
 11
120.182
 21
254.008
 31
0.0
  0
LINE
  8
0
 62
     250
 10
120.182
 20
254.008
 30
0.0
 11
120.775
 21
259.322
 31
0.0
  0
LINE
  8
0
 62
     250
 10
120.775
 20
259.322
 30
0.0
 11
121.584
 21
267.192
 31
0.0
  0
LINE
  8
0
 62
     250
 10
121.584
 20
267.192
 30
0.0
 11
122.211
 21
274.959
 31
0.0
  0
LINE
  8
0
 62
     250
 10
122.211
 20
274.959
 30
0.0
 11
122.464
 21
280.035
 31
0.0
  0
LINE
  8
0
 62
     250
 10
122.464
 20
280.035
 30
0.0
 11
122.464
 21
281.728
 31
0.0
  0
LINE
  8
0
 62
     250
 10
122.464
 20
281.728
 30
0.0
 11
122.464
 21
421.774
 31
0.0
  0
LINE
  8
0
 62
     250
 10
122.464
 20
421.774
 30
0.0
 11
122.464
 21
424.279
 31
0.0
  0
LINE
  8
0
 62
     250
 10
122.464
 20
424.279
 30
0.0
 11
122.151
 21
431.789
 31
0.0
  0
LINE
  8
0
 62
     250
 10
122.151
 20
431.789
 30
0.0
 11
121.412
 21
441.935
 31
0.0
  0
LINE
  8
0
 62
     250
 10
121.412
 20
441.935
 30
0.0
 11
120.542
 21
451.612
 31
0.0
  0
LINE
  8
0
 62
     250
 10
120.542
 20
451.612
 30
0.0
 11
119.984
 21
458.057
 31
0.0
  0
LINE
  8
0
 62
     250
 10
119.984
 20
458.057
 30
0.0
 11
119.844
 21
460.209
 31
0.0
  0
LINE
  8
0
 62
     250
 10
119.844
 20
460.209
 30
0.0
 11
119.709
 21
462.245
 31
0.0
  0
LINE
  8
0
 62
     250
 10
119.709
 20
462.245
 30
0.0
 11
119.318
 21
468.351
 31
0.0
  0
LINE
  8
0
 62
     250
 10
119.318
 20
468.351
 30
0.0
 11
119.05
 21
476.913
 31
0.0
  0
LINE
  8
0
 62
     250
 10
119.05
 20
476.913
 30
0.0
 11
119.455
 21
485.683
 31
0.0
  0
LINE
  8
0
 62
     250
 10
119.455
 20
485.683
 30
0.0
 11
120.409
 21
492.301
 31
0.0
  0
LINE
  8
0
 62
     250
 10
120.409
 20
492.301
 30
0.0
 11
120.946
 21
494.453
 31
0.0
  0
LINE
  8
0
 62
     250
 10
120.946
 20
494.453
 30
0.0
 11
121.212
 21
495.522
 31
0.0
  0
LINE
  8
0
 62
     250
 10
121.212
 20
495.522
 30
0.0
 11
122.138
 21
498.694
 31
0.0
  0
LINE
  8
0
 62
     250
 10
122.138
 20
498.694
 30
0.0
 11
123.577
 21
502.74
 31
0.0
  0
LINE
  8
0
 62
     250
 10
123.577
 20
502.74
 30
0.0
 11
125.317
 21
506.642
 31
0.0
  0
LINE
  8
0
 62
     250
 10
125.317
 20
506.642
 30
0.0
 11
127.411
 21
510.438
 31
0.0
  0
LINE
  8
0
 62
     250
 10
127.411
 20
510.438
 30
0.0
 11
129.912
 21
514.177
 31
0.0
  0
LINE
  8
0
 62
     250
 10
129.912
 20
514.177
 30
0.0
 11
132.873
 21
517.902
 31
0.0
  0
LINE
  8
0
 62
     250
 10
132.873
 20
517.902
 30
0.0
 11
136.35
 21
521.656
 31
0.0
  0
LINE
  8
0
 62
     250
 10
136.35
 20
521.656
 30
0.0
 11
139.355
 21
524.556
 31
0.0
  0
LINE
  8
0
 62
     250
 10
139.355
 20
524.556
 30
0.0
 11
140.393
 21
525.48
 31
0.0
  0
LINE
  8
0
 62
     250
 10
140.393
 20
525.48
 30
0.0
 11
141.551
 21
526.514
 31
0.0
  0
LINE
  8
0
 62
     250
 10
141.551
 20
526.514
 30
0.0
 11
145.276
 21
529.336
 31
0.0
  0
LINE
  8
0
 62
     250
 10
145.276
 20
529.336
 30
0.0
 11
151.058
 21
533.121
 31
0.0
  0
LINE
  8
0
 62
     250
 10
151.058
 20
533.121
 30
0.0
 11
157.477
 21
536.776
 31
0.0
  0
LINE
  8
0
 62
     250
 10
157.477
 20
536.776
 30
0.0
 11
164.27
 21
540.262
 31
0.0
  0
LINE
  8
0
 62
     250
 10
164.27
 20
540.262
 30
0.0
 11
171.173
 21
543.521
 31
0.0
  0
LINE
  8
0
 62
     250
 10
171.173
 20
543.521
 30
0.0
 11
177.921
 21
546.513
 31
0.0
  0
LINE
  8
0
 62
     250
 10
177.921
 20
546.513
 30
0.0
 11
184.253
 21
549.18
 31
0.0
  0
LINE
  8
0
 62
     250
 10
184.253
 20
549.18
 30
0.0
 11
188.49
 21
550.908
 31
0.0
  0
LINE
  8
0
 62
     250
 10
188.49
 20
550.908
 30
0.0
 11
189.906
 21
551.476
 31
0.0
  0
LINE
  8
0
 62
     250
 10
189.906
 20
551.476
 30
0.0
 11
191.408
 21
552.08
 31
0.0
  0
LINE
  8
0
 62
     250
 10
191.408
 20
552.08
 30
0.0
 11
195.954
 21
553.791
 31
0.0
  0
LINE
  8
0
 62
     250
 10
195.954
 20
553.791
 30
0.0
 11
203.437
 21
556.465
 31
0.0
  0
LINE
  8
0
 62
     250
 10
203.437
 20
556.465
 30
0.0
 11
212.028
 21
559.382
 31
0.0
  0
LINE
  8
0
 62
     250
 10
212.028
 20
559.382
 30
0.0
 11
221.404
 21
562.43
 31
0.0
  0
LINE
  8
0
 62
     250
 10
221.404
 20
562.43
 30
0.0
 11
231.238
 21
565.503
 31
0.0
  0
LINE
  8
0
 62
     250
 10
231.238
 20
565.503
 30
0.0
 11
241.206
 21
568.48
 31
0.0
  0
LINE
  8
0
 62
     250
 10
241.206
 20
568.48
 30
0.0
 11
250.983
 21
571.25
 31
0.0
  0
LINE
  8
0
 62
     250
 10
250.983
 20
571.25
 30
0.0
 11
257.925
 21
573.112
 31
0.0
  0
LINE
  8
0
 62
     250
 10
257.925
 20
573.112
 30
0.0
 11
260.247
 21
573.698
 31
0.0
  0
LINE
  8
0
 62
     250
 10
260.247
 20
573.698
 30
0.0
 11
262.587
 21
574.294
 31
0.0
  0
LINE
  8
0
 62
     250
 10
262.587
 20
574.294
 30
0.0
 11
269.623
 21
576.026
 31
0.0
  0
LINE
  8
0
 62
     250
 10
269.623
 20
576.026
 30
0.0
 11
279.798
 21
578.439
 31
0.0
  0
LINE
  8
0
 62
     250
 10
279.798
 20
578.439
 30
0.0
 11
290.518
 21
580.859
 31
0.0
  0
LINE
  8
0
 62
     250
 10
290.518
 20
580.859
 30
0.0
 11
301.535
 21
583.205
 31
0.0
  0
LINE
  8
0
 62
     250
 10
301.535
 20
583.205
 30
0.0
 11
312.597
 21
585.392
 31
0.0
  0
LINE
  8
0
 62
     250
 10
312.597
 20
585.392
 30
0.0
 11
323.453
 21
587.34
 31
0.0
  0
LINE
  8
0
 62
     250
 10
323.453
 20
587.34
 30
0.0
 11
333.854
 21
588.97
 31
0.0
  0
LINE
  8
0
 62
     250
 10
333.854
 20
588.97
 30
0.0
 11
341.121
 21
589.933
 31
0.0
  0
LINE
  8
0
 62
     250
 10
341.121
 20
589.933
 30
0.0
 11
343.551
 21
590.194
 31
0.0
  0
LINE
  8
0
 62
     250
 10
343.551
 20
590.194
 30
0.0
 11
345.714
 21
590.427
 31
0.0
  0
LINE
  8
0
 62
     250
 10
345.714
 20
590.427
 30
0.0
 11
352.209
 21
591.111
 31
0.0
  0
LINE
  8
0
 62
     250
 10
352.209
 20
591.111
 30
0.0
 11
359.763
 21
591.876
 31
0.0
  0
LINE
  8
0
 62
     250
 10
359.763
 20
591.876
 30
0.0
 11
366.342
 21
592.487
 31
0.0
  0
LINE
  8
0
 62
     250
 10
366.342
 20
592.487
 30
0.0
 11
372.082
 21
592.952
 31
0.0
  0
LINE
  8
0
 62
     250
 10
372.082
 20
592.952
 30
0.0
 11
377.119
 21
593.273
 31
0.0
  0
LINE
  8
0
 62
     250
 10
377.119
 20
593.273
 30
0.0
 11
381.582
 21
593.453
 31
0.0
  0
LINE
  8
0
 62
     250
 10
381.582
 20
593.453
 30
0.0
 11
385.611
 21
593.499
 31
0.0
  0
LINE
  8
0
 62
     250
 10
385.611
 20
593.499
 30
0.0
 11
388.408
 21
593.446
 31
0.0
  0
LINE
  8
0
 62
     250
 10
388.408
 20
593.446
 30
0.0
 11
389.34
 21
593.407
 31
0.0
  0
LINE
  8
0
 62
     250
 10
389.34
 20
593.407
 30
0.0
 11
390.419
 21
593.362
 31
0.0
  0
LINE
  8
0
 62
     250
 10
390.419
 20
593.362
 30
0.0
 11
393.647
 21
592.974
 31
0.0
  0
LINE
  8
0
 62
     250
 10
393.647
 20
592.974
 30
0.0
 11
399.034
 21
592.074
 31
0.0
  0
LINE
  8
0
 62
     250
 10
399.034
 20
592.074
 30
0.0
 11
405.052
 21
590.857
 31
0.0
  0
LINE
  8
0
 62
     250
 10
405.052
 20
590.857
 30
0.0
 11
411.258
 21
589.46
 31
0.0
  0
LINE
  8
0
 62
     250
 10
411.258
 20
589.46
 30
0.0
 11
417.202
 21
588.021
 31
0.0
  0
LINE
  8
0
 62
     250
 10
417.202
 20
588.021
 30
0.0
 11
422.444
 21
586.687
 31
0.0
  0
LINE
  8
0
 62
     250
 10
422.444
 20
586.687
 30
0.0
 11
426.537
 21
585.593
 31
0.0
  0
LINE
  8
0
 62
     250
 10
426.537
 20
585.593
 30
0.0
 11
428.413
 21
585.068
 31
0.0
  0
LINE
  8
0
 62
     250
 10
428.413
 20
585.068
 30
0.0
 11
429.034
 21
584.881
 31
0.0
  0
LINE
  8
0
 62
     250
 10
1036.43
 20
677.485
 30
0.0
 11
1037.61
 21
677.213
 31
0.0
  0
LINE
  8
0
 62
     250
 10
1037.61
 20
677.213
 30
0.0
 11
1042.72
 21
676.039
 31
0.0
  0
LINE
  8
0
 62
     250
 10
1042.72
 20
676.039
 30
0.0
 11
1046.61
 21
675.16
 31
0.0
  0
LINE
  8
0
 62
     250
 10
1046.61
 20
675.16
 30
0.0
 11
1047.19
 21
675.03
 31
0.0
  0
LINE
  8
0
 62
     250
 10
1047.19
 20
675.03
 30
0.0
 11
1047.98
 21
674.857
 31
0.0
  0
LINE
  8
0
 62
     250
 10
1047.98
 20
674.857
 30
0.0
 11
1050.36
 21
674.324
 31
0.0
  0
LINE
  8
0
 62
     250
 10
1050.36
 20
674.324
 30
0.0
 11
1054.16
 21
673.474
 31
0.0
  0
LINE
  8
0
 62
     250
 10
1054.16
 20
673.474
 30
0.0
 11
1058.51
 21
672.493
 31
0.0
  0
LINE
  8
0
 62
     250
 10
1058.51
 20
672.493
 30
0.0
 11
1063.32
 21
671.4
 31
0.0
  0
LINE
  8
0
 62
     250
 10
1063.32
 20
671.4
 30
0.0
 11
1068.53
 21
670.204
 31
0.0
  0
LINE
  8
0
 62
     250
 10
1068.53
 20
670.204
 30
0.0
 11
1074.06
 21
668.93
 31
0.0
  0
LINE
  8
0
 62
     250
 10
1074.06
 20
668.93
 30
0.0
 11
1079.85
 21
667.586
 31
0.0
  0
LINE
  8
0
 62
     250
 10
1079.85
 20
667.586
 30
0.0
 11
1085.81
 21
666.193
 31
0.0
  0
LINE
  8
0
 62
     250
 10
1085.81
 20
666.193
 30
0.0
 11
1091.87
 21
664.76
 31
0.0
  0
LINE
  8
0
 62
     250
 10
1091.87
 20
664.76
 30
0.0
 11
1097.96
 21
663.31
 31
0.0
  0
LINE
  8
0
 62
     250
 10
1097.96
 20
663.31
 30
0.0
 11
1104.01
 21
661.853
 31
0.0
  0
LINE
  8
0
 62
     250
 10
1104.01
 20
661.853
 30
0.0
 11
1109.94
 21
660.407
 31
0.0
  0
LINE
  8
0
 62
     250
 10
1109.94
 20
660.407
 30
0.0
 11
1115.68
 21
658.989
 31
0.0
  0
LINE
  8
0
 62
     250
 10
1115.68
 20
658.989
 30
0.0
 11
1121.16
 21
657.613
 31
0.0
  0
LINE
  8
0
 62
     250
 10
1121.16
 20
657.613
 30
0.0
 11
1126.3
 21
656.294
 31
0.0
  0
LINE
  8
0
 62
     250
 10
1126.3
 20
656.294
 30
0.0
 11
1129.84
 21
655.362
 31
0.0
  0
LINE
  8
0
 62
     250
 10
1129.84
 20
655.362
 30
0.0
 11
1131.02
 21
655.045
 31
0.0
  0
LINE
  8
0
 62
     250
 10
1131.02
 20
655.045
 30
0.0
 11
1133.5
 21
654.382
 31
0.0
  0
LINE
  8
0
 62
     250
 10
1133.5
 20
654.382
 30
0.0
 11
1140.91
 21
652.35
 31
0.0
  0
LINE
  8
0
 62
     250
 10
1140.91
 20
652.35
 30
0.0
 11
1152.28
 21
649.143
 31
0.0
  0
LINE
  8
0
 62
     250
 10
1152.28
 20
649.143
 30
0.0
 11
1164.69
 21
645.52
 31
0.0
  0
LINE
  8
0
 62
     250
 10
1164.69
 20
645.52
 30
0.0
 11
1177.69
 21
641.576
 31
0.0
  0
LINE
  8
0
 62
     250
 10
1177.69
 20
641.576
 30
0.0
 11
1190.82
 21
637.399
 31
0.0
  0
LINE
  8
0
 62
     250
 10
1190.82
 20
637.399
 30
0.0
 11
1203.62
 21
633.091
 31
0.0
  0
LINE
  8
0
 62
     250
 10
1203.62
 20
633.091
 30
0.0
 11
1215.66
 21
628.738
 31
0.0
  0
LINE
  8
0
 62
     250
 10
1215.66
 20
628.738
 30
0.0
 11
1223.8
 21
625.567
 31
0.0
  0
LINE
  8
0
 62
     250
 10
1223.8
 20
625.567
 30
0.0
 11
1226.48
 21
624.434
 31
0.0
  0
LINE
  8
0
 62
     250
 10
1226.48
 20
624.434
 30
0.0
 11
1228.94
 21
623.394
 31
0.0
  0
LINE
  8
0
 62
     250
 10
1228.94
 20
623.394
 30
0.0
 11
1236.3
 21
620.183
 31
0.0
  0
LINE
  8
0
 62
     250
 10
1236.3
 20
620.183
 30
0.0
 11
1245.66
 21
615.83
 31
0.0
  0
LINE
  8
0
 62
     250
 10
1245.66
 20
615.83
 30
0.0
 11
1254.58
 21
611.258
 31
0.0
  0
LINE
  8
0
 62
     250
 10
1254.58
 20
611.258
 30
0.0
 11
1263.09
 21
606.337
 31
0.0
  0
LINE
  8
0
 62
     250
 10
1263.09
 20
606.337
 30
0.0
 11
1271.2
 21
600.943
 31
0.0
  0
LINE
  8
0
 62
     250
 10
1271.2
 20
600.943
 30
0.0
 11
1278.93
 21
594.953
 31
0.0
  0
LINE
  8
0
 62
     250
 10
1278.93
 20
594.953
 30
0.0
 11
1286.31
 21
588.243
 31
0.0
  0
LINE
  8
0
 62
     250
 10
1286.31
 20
588.243
 30
0.0
 11
1291.66
 21
582.648
 31
0.0
  0
LINE
  8
0
 62
     250
 10
1291.66
 20
582.648
 30
0.0
 11
1293.34
 21
580.69
 31
0.0
  0
LINE
  8
0
 62
     250
 10
1293.34
 20
580.69
 30
0.0
 11
1294.21
 21
579.677
 31
0.0
  0
LINE
  8
0
 62
     250
 10
1294.21
 20
579.677
 30
0.0
 11
1296.61
 21
576.467
 31
0.0
  0
LINE
  8
0
 62
     250
 10
1296.61
 20
576.467
 30
0.0
 11
1299.56
 21
571.87
 31
0.0
  0
LINE
  8
0
 62
     250
 10
1299.56
 20
571.87
 30
0.0
 11
1302.22
 21
566.984
 31
0.0
  0
LINE
  8
0
 62
     250
 10
1302.22
 20
566.984
 30
0.0
 11
1304.58
 21
561.883
 31
0.0
  0
LINE
  8
0
 62
     250
 10
1304.58
 20
561.883
 30
0.0
 11
1306.67
 21
556.648
 31
0.0
  0
LINE
  8
0
 62
     250
 10
1306.67
 20
556.648
 30
0.0
 11
1308.52
 21
551.356
 31
0.0
  0
LINE
  8
0
 62
     250
 10
1308.52
 20
551.356
 30
0.0
 11
1310.11
 21
546.093
 31
0.0
  0
LINE
  8
0
 62
     250
 10
1310.11
 20
546.093
 30
0.0
 11
1311.49
 21
540.928
 31
0.0
  0
LINE
  8
0
 62
     250
 10
1311.49
 20
540.928
 30
0.0
 11
1312.66
 21
535.951
 31
0.0
  0
LINE
  8
0
 62
     250
 10
1312.66
 20
535.951
 30
0.0
 11
1313.63
 21
531.234
 31
0.0
  0
LINE
  8
0
 62
     250
 10
1313.63
 20
531.234
 30
0.0
 11
1314.43
 21
526.859
 31
0.0
  0
LINE
  8
0
 62
     250
 10
1314.43
 20
526.859
 30
0.0
 11
1315.06
 21
522.908
 31
0.0
  0
LINE
  8
0
 62
     250
 10
1315.06
 20
522.908
 30
0.0
 11
1315.54
 21
519.458
 31
0.0
  0
LINE
  8
0
 62
     250
 10
1315.54
 20
519.458
 30
0.0
 11
1315.9
 21
516.587
 31
0.0
  0
LINE
  8
0
 62
     250
 10
1315.9
 20
516.587
 30
0.0
 11
1316.14
 21
514.375
 31
0.0
  0
LINE
  8
0
 62
     250
 10
1316.14
 20
514.375
 30
0.0
 11
1316.24
 21
513.27
 31
0.0
  0
LINE
  8
0
 62
     250
 10
1316.24
 20
513.27
 30
0.0
 11
1316.27
 21
512.9
 31
0.0
  0
LINE
  8
0
 62
     250
 10
1316.27
 20
512.9
 30
0.0
 11
1316.35
 21
511.986
 31
0.0
  0
LINE
  8
0
 62
     250
 10
1316.35
 20
511.986
 30
0.0
 11
1316.55
 21
509.235
 31
0.0
  0
LINE
  8
0
 62
     250
 10
1316.55
 20
509.235
 30
0.0
 11
1316.89
 21
504.137
 31
0.0
  0
LINE
  8
0
 62
     250
 10
1316.89
 20
504.137
 30
0.0
 11
1317.27
 21
497.935
 31
0.0
  0
LINE
  8
0
 62
     250
 10
1317.27
 20
497.935
 30
0.0
 11
1317.66
 21
490.954
 31
0.0
  0
LINE
  8
0
 62
     250
 10
1317.66
 20
490.954
 30
0.0
 11
1318.02
 21
483.514
 31
0.0
  0
LINE
  8
0
 62
     250
 10
1318.02
 20
483.514
 30
0.0
 11
1318.33
 21
475.943
 31
0.0
  0
LINE
  8
0
 62
     250
 10
1318.33
 20
475.943
 30
0.0
 11
1318.57
 21
468.566
 31
0.0
  0
LINE
  8
0
 62
     250
 10
1318.57
 20
468.566
 30
0.0
 11
1318.68
 21
463.419
 31
0.0
  0
LINE
  8
0
 62
     250
 10
1318.68
 20
463.419
 30
0.0
 11
1318.7
 21
461.701
 31
0.0
  0
LINE
  8
0
 62
     250
 10
1318.7
 20
461.701
 30
0.0
 11
1318.73
 21
459.955
 31
0.0
  0
LINE
  8
0
 62
     250
 10
1318.73
 20
459.955
 30
0.0
 11
1318.76
 21
454.716
 31
0.0
  0
LINE
  8
0
 62
     250
 10
1318.76
 20
454.716
 30
0.0
 11
1318.79
 21
447.001
 31
0.0
  0
LINE
  8
0
 62
     250
 10
1318.79
 20
447.001
 30
0.0
 11
1318.78
 21
438.891
 31
0.0
  0
LINE
  8
0
 62
     250
 10
1318.78
 20
438.891
 30
0.0
 11
1318.75
 21
430.742
 31
0.0
  0
LINE
  8
0
 62
     250
 10
1318.75
 20
430.742
 30
0.0
 11
1318.71
 21
422.899
 31
0.0
  0
LINE
  8
0
 62
     250
 10
1318.71
 20
422.899
 30
0.0
 11
1318.65
 21
415.71
 31
0.0
  0
LINE
  8
0
 62
     250
 10
1318.65
 20
415.71
 30
0.0
 11
1318.58
 21
409.519
 31
0.0
  0
LINE
  8
0
 62
     250
 10
1318.58
 20
409.519
 30
0.0
 11
1318.53
 21
405.888
 31
0.0
  0
LINE
  8
0
 62
     250
 10
1318.53
 20
405.888
 30
0.0
 11
1318.51
 21
404.675
 31
0.0
  0
LINE
  8
0
 62
     250
 10
1318.51
 20
404.675
 30
0.0
 11
1318.48
 21
403.44
 31
0.0
  0
LINE
  8
0
 62
     250
 10
1318.48
 20
403.44
 30
0.0
 11
1318.37
 21
399.736
 31
0.0
  0
LINE
  8
0
 62
     250
 10
1318.37
 20
399.736
 30
0.0
 11
1318.14
 21
393.361
 31
0.0
  0
LINE
  8
0
 62
     250
 10
1318.14
 20
393.361
 30
0.0
 11
1317.85
 21
386.055
 31
0.0
  0
LINE
  8
0
 62
     250
 10
1317.85
 20
386.055
 30
0.0
 11
1317.54
 21
378.319
 31
0.0
  0
LINE
  8
0
 62
     250
 10
1317.54
 20
378.319
 30
0.0
 11
1317.23
 21
370.657
 31
0.0
  0
LINE
  8
0
 62
     250
 10
1317.23
 20
370.657
 30
0.0
 11
1316.97
 21
363.573
 31
0.0
  0
LINE
  8
0
 62
     250
 10
1316.97
 20
363.573
 30
0.0
 11
1316.79
 21
357.569
 31
0.0
  0
LINE
  8
0
 62
     250
 10
1316.79
 20
357.569
 30
0.0
 11
1316.72
 21
354.252
 31
0.0
  0
LINE
  8
0
 62
     250
 10
1316.72
 20
354.252
 30
0.0
 11
1316.72
 21
353.148
 31
0.0
  0
LINE
  8
0
 62
     250
 10
1316.72
 20
353.148
 30
0.0
 11
1316.72
 21
351.905
 31
0.0
  0
LINE
  8
0
 62
     250
 10
1316.72
 20
351.905
 30
0.0
 11
1316.74
 21
348.176
 31
0.0
  0
LINE
  8
0
 62
     250
 10
1316.74
 20
348.176
 30
0.0
 11
1316.81
 21
343.588
 31
0.0
  0
LINE
  8
0
 62
     250
 10
1316.81
 20
343.588
 30
0.0
 11
1316.91
 21
339.303
 31
0.0
  0
LINE
  8
0
 62
     250
 10
1316.91
 20
339.303
 30
0.0
 11
1317.05
 21
335.25
 31
0.0
  0
LINE
  8
0
 62
     250
 10
1317.05
 20
335.25
 30
0.0
 11
1317.2
 21
331.351
 31
0.0
  0
LINE
  8
0
 62
     250
 10
1317.2
 20
331.351
 30
0.0
 11
1317.38
 21
327.529
 31
0.0
  0
LINE
  8
0
 62
     250
 10
1317.38
 20
327.529
 30
0.0
 11
1317.57
 21
323.71
 31
0.0
  0
LINE
  8
0
 62
     250
 10
1317.57
 20
323.71
 30
0.0
 11
1317.76
 21
319.815
 31
0.0
  0
LINE
  8
0
 62
     250
 10
1317.76
 20
319.815
 30
0.0
 11
1317.96
 21
315.769
 31
0.0
  0
LINE
  8
0
 62
     250
 10
1317.96
 20
315.769
 30
0.0
 11
1318.14
 21
311.497
 31
0.0
  0
LINE
  8
0
 62
     250
 10
1318.14
 20
311.497
 30
0.0
 11
1318.32
 21
306.922
 31
0.0
  0
LINE
  8
0
 62
     250
 10
1318.32
 20
306.922
 30
0.0
 11
1318.48
 21
301.968
 31
0.0
  0
LINE
  8
0
 62
     250
 10
1318.48
 20
301.968
 30
0.0
 11
1318.61
 21
296.558
 31
0.0
  0
LINE
  8
0
 62
     250
 10
1318.61
 20
296.558
 30
0.0
 11
1318.72
 21
290.617
 31
0.0
  0
LINE
  8
0
 62
     250
 10
1318.72
 20
290.617
 30
0.0
 11
1318.78
 21
284.069
 31
0.0
  0
LINE
  8
0
 62
     250
 10
1318.78
 20
284.069
 30
0.0
 11
1318.8
 21
278.645
 31
0.0
  0
LINE
  8
0
 62
     250
 10
1318.8
 20
278.645
 30
0.0
 11
1318.8
 21
276.835
 31
0.0
  0
LINE
  8
0
 62
     250
 10
1318.8
 20
276.835
 30
0.0
 11
1318.8
 21
273.009
 31
0.0
  0
LINE
  8
0
 62
     250
 10
1318.8
 20
273.009
 30
0.0
 11
1318.79
 21
261.525
 31
0.0
  0
LINE
  8
0
 62
     250
 10
1318.79
 20
261.525
 30
0.0
 11
1318.7
 21
246.175
 31
0.0
  0
LINE
  8
0
 62
     250
 10
1318.7
 20
246.175
 30
0.0
 11
1318.44
 21
231.061
 31
0.0
  0
LINE
  8
0
 62
     250
 10
1318.44
 20
231.061
 30
0.0
 11
1317.95
 21
216.457
 31
0.0
  0
LINE
  8
0
 62
     250
 10
1317.95
 20
216.457
 30
0.0
 11
1317.13
 21
202.64
 31
0.0
  0
LINE
  8
0
 62
     250
 10
1317.13
 20
202.64
 30
0.0
 11
1315.91
 21
189.884
 31
0.0
  0
LINE
  8
0
 62
     250
 10
1315.91
 20
189.884
 30
0.0
 11
1314.21
 21
178.466
 31
0.0
  0
LINE
  8
0
 62
     250
 10
1314.21
 20
178.466
 30
0.0
 11
1312.65
 21
171.071
 31
0.0
  0
LINE
  8
0
 62
     250
 10
1312.65
 20
171.071
 30
0.0
 11
1311.96
 21
168.657
 31
0.0
  0
LINE
  8
0
 62
     250
 10
1311.96
 20
168.657
 30
0.0
 11
1311.64
 21
167.574
 31
0.0
  0
LINE
  8
0
 62
     250
 10
1311.64
 20
167.574
 30
0.0
 11
1310.68
 21
164.331
 31
0.0
  0
LINE
  8
0
 62
     250
 10
1310.68
 20
164.331
 30
0.0
 11
1309.41
 21
160.241
 31
0.0
  0
LINE
  8
0
 62
     250
 10
1309.41
 20
160.241
 30
0.0
 11
1308.11
 21
156.354
 31
0.0
  0
LINE
  8
0
 62
     250
 10
1308.11
 20
156.354
 30
0.0
 11
1306.75
 21
152.637
 31
0.0
  0
LINE
  8
0
 62
     250
 10
1306.75
 20
152.637
 30
0.0
 11
1305.3
 21
149.057
 31
0.0
  0
LINE
  8
0
 62
     250
 10
1305.3
 20
149.057
 30
0.0
 11
1303.72
 21
145.583
 31
0.0
  0
LINE
  8
0
 62
     250
 10
1303.72
 20
145.583
 30
0.0
 11
1301.97
 21
142.18
 31
0.0
  0
LINE
  8
0
 62
     250
 10
1301.97
 20
142.18
 30
0.0
 11
1300.04
 21
138.817
 31
0.0
  0
LINE
  8
0
 62
     250
 10
1300.04
 20
138.817
 30
0.0
 11
1297.88
 21
135.46
 31
0.0
  0
LINE
  8
0
 62
     250
 10
1297.88
 20
135.46
 30
0.0
 11
1295.47
 21
132.078
 31
0.0
  0
LINE
  8
0
 62
     250
 10
1295.47
 20
132.078
 30
0.0
 11
1292.78
 21
128.636
 31
0.0
  0
LINE
  8
0
 62
     250
 10
1292.78
 20
128.636
 30
0.0
 11
1289.76
 21
125.102
 31
0.0
  0
LINE
  8
0
 62
     250
 10
1289.76
 20
125.102
 30
0.0
 11
1286.39
 21
121.444
 31
0.0
  0
LINE
  8
0
 62
     250
 10
1286.39
 20
121.444
 30
0.0
 11
1282.63
 21
117.63
 31
0.0
  0
LINE
  8
0
 62
     250
 10
1282.63
 20
117.63
 30
0.0
 11
1278.45
 21
113.625
 31
0.0
  0
LINE
  8
0
 62
     250
 10
1278.45
 20
113.625
 30
0.0
 11
1275
 21
110.44
 31
0.0
  0
LINE
  8
0
 62
     250
 10
1275
 20
110.44
 30
0.0
 11
1273.83
 21
109.396
 31
0.0
  0
LINE
  8
0
 62
     250
 10
1273.83
 20
109.396
 30
0.0
 11
1272.52
 21
108.217
 31
0.0
  0
LINE
  8
0
 62
     250
 10
1272.52
 20
108.217
 30
0.0
 11
1268.25
 21
105.031
 31
0.0
  0
LINE
  8
0
 62
     250
 10
1268.25
 20
105.031
 30
0.0
 11
1261.34
 21
100.659
 31
0.0
  0
LINE
  8
0
 62
     250
 10
1261.34
 20
100.659
 30
0.0
 11
1253.33
 21
96.3097
 31
0.0
  0
LINE
  8
0
 62
     250
 10
1253.33
 20
96.3097
 30
0.0
 11
1244.4
 21
92.0171
 31
0.0
  0
LINE
  8
0
 62
     250
 10
1244.4
 20
92.0171
 30
0.0
 11
1234.77
 21
87.8099
 31
0.0
  0
LINE
  8
0
 62
     250
 10
1234.77
 20
87.8099
 30
0.0
 11
1224.64
 21
83.7212
 31
0.0
  0
LINE
  8
0
 62
     250
 10
1224.64
 20
83.7212
 30
0.0
 11
1214.21
 21
79.7828
 31
0.0
  0
LINE
  8
0
 62
     250
 10
1214.21
 20
79.7828
 30
0.0
 11
1203.69
 21
76.0264
 31
0.0
  0
LINE
  8
0
 62
     250
 10
1203.69
 20
76.0264
 30
0.0
 11
1193.28
 21
72.4821
 31
0.0
  0
LINE
  8
0
 62
     250
 10
1193.28
 20
72.4821
 30
0.0
 11
1183.19
 21
69.1829
 31
0.0
  0
LINE
  8
0
 62
     250
 10
1183.19
 20
69.1829
 30
0.0
 11
1173.62
 21
66.1596
 31
0.0
  0
LINE
  8
0
 62
     250
 10
1173.62
 20
66.1596
 30
0.0
 11
1164.77
 21
63.4436
 31
0.0
  0
LINE
  8
0
 62
     250
 10
1164.77
 20
63.4436
 30
0.0
 11
1156.85
 21
61.0665
 31
0.0
  0
LINE
  8
0
 62
     250
 10
1156.85
 20
61.0665
 30
0.0
 11
1150.06
 21
59.0599
 31
0.0
  0
LINE
  8
0
 62
     250
 10
1150.06
 20
59.0599
 30
0.0
 11
1144.61
 21
57.4544
 31
0.0
  0
LINE
  8
0
 62
     250
 10
1144.61
 20
57.4544
 30
0.0
 11
1141.68
 21
56.5838
 31
0.0
  0
LINE
  8
0
 62
     250
 10
1141.68
 20
56.5838
 30
0.0
 11
1140.7
 21
56.2832
 31
0.0
  0
LINE
  8
0
 62
     250
 10
1140.7
 20
56.2832
 30
0.0
 11
1140.18
 21
56.122
 31
0.0
  0
LINE
  8
0
 62
     250
 10
1140.18
 20
56.122
 30
0.0
 11
1138.59
 21
55.6796
 31
0.0
  0
LINE
  8
0
 62
     250
 10
1138.59
 20
55.6796
 30
0.0
 11
1135.61
 21
54.8982
 31
0.0
  0
LINE
  8
0
 62
     250
 10
1135.61
 20
54.8982
 30
0.0
 11
1131.83
 21
53.9531
 31
0.0
  0
LINE
  8
0
 62
     250
 10
1131.83
 20
53.9531
 30
0.0
 11
1127.32
 21
52.8546
 31
0.0
  0
LINE
  8
0
 62
     250
 10
1127.32
 20
52.8546
 30
0.0
 11
1122.13
 21
51.6184
 31
0.0
  0
LINE
  8
0
 62
     250
 10
1122.13
 20
51.6184
 30
0.0
 11
1116.33
 21
50.2557
 31
0.0
  0
LINE
  8
0
 62
     250
 10
1116.33
 20
50.2557
 30
0.0
 11
1109.98
 21
48.7786
 31
0.0
  0
LINE
  8
0
 62
     250
 10
1109.98
 20
48.7786
 30
0.0
 11
1103.15
 21
47.202
 31
0.0
  0
LINE
  8
0
 62
     250
 10
1103.15
 20
47.202
 30
0.0
 11
1095.89
 21
45.5373
 31
0.0
  0
LINE
  8
0
 62
     250
 10
1095.89
 20
45.5373
 30
0.0
 11
1088.28
 21
43.7967
 31
0.0
  0
LINE
  8
0
 62
     250
 10
1088.28
 20
43.7967
 30
0.0
 11
1080.37
 21
41.9957
 31
0.0
  0
LINE
  8
0
 62
     250
 10
1080.37
 20
41.9957
 30
0.0
 11
1072.22
 21
40.1436
 31
0.0
  0
LINE
  8
0
 62
     250
 10
1072.22
 20
40.1436
 30
0.0
 11
1063.91
 21
38.257
 31
0.0
  0
LINE
  8
0
 62
     250
 10
1063.91
 20
38.257
 30
0.0
 11
1055.49
 21
36.3456
 31
0.0
  0
LINE
  8
0
 62
     250
 10
1055.49
 20
36.3456
 30
0.0
 11
1047.02
 21
34.4234
 31
0.0
  0
LINE
  8
0
 62
     250
 10
1047.02
 20
34.4234
 30
0.0
 11
1040.69
 21
32.9833
 31
0.0
  0
LINE
  8
0
 62
     250
 10
1040.69
 20
32.9833
 30
0.0
 11
1038.58
 21
32.5024
 31
0.0
  0
LINE
  8
0
 62
     250
 10
1878.74
 20
350.268
 30
0.0
 11
1878.69
 21
348.589
 31
0.0
  0
LINE
  8
0
 62
     250
 10
1878.69
 20
348.589
 30
0.0
 11
1878.55
 21
343.545
 31
0.0
  0
LINE
  8
0
 62
     250
 10
1878.55
 20
343.545
 30
0.0
 11
1878.27
 21
336.273
 31
0.0
  0
LINE
  8
0
 62
     250
 10
1878.27
 20
336.273
 30
0.0
 11
1877.84
 21
328.439
 31
0.0
  0
LINE
  8
0
 62
     250
 10
1877.84
 20
328.439
 30
0.0
 11
1877.22
 21
320.027
 31
0.0
  0
LINE
  8
0
 62
     250
 10
1877.22
 20
320.027
 30
0.0
 11
1876.33
 21
311.023
 31
0.0
  0
LINE
  8
0
 62
     250
 10
1876.33
 20
311.023
 30
0.0
 11
1875.12
 21
301.412
 31
0.0
  0
LINE
  8
0
 62
     250
 10
1875.12
 20
301.412
 30
0.0
 11
1873.53
 21
291.18
 31
0.0
  0
LINE
  8
0
 62
     250
 10
1873.53
 20
291.18
 30
0.0
 11
1872.04
 21
283.019
 31
0.0
  0
LINE
  8
0
 62
     250
 10
1872.04
 20
283.019
 30
0.0
 11
1871.5
 21
280.309
 31
0.0
  0
LINE
  8
0
 62
     250
 10
1871.5
 20
280.309
 30
0.0
 11
1870.95
 21
277.614
 31
0.0
  0
LINE
  8
0
 62
     250
 10
1870.95
 20
277.614
 30
0.0
 11
1869.21
 21
269.545
 31
0.0
  0
LINE
  8
0
 62
     250
 10
1869.21
 20
269.545
 30
0.0
 11
1866.83
 21
259.501
 31
0.0
  0
LINE
  8
0
 62
     250
 10
1866.83
 20
259.501
 30
0.0
 11
1864.26
 21
249.968
 31
0.0
  0
LINE
  8
0
 62
     250
 10
1864.26
 20
249.968
 30
0.0
 11
1861.4
 21
240.742
 31
0.0
  0
LINE
  8
0
 62
     250
 10
1861.4
 20
240.742
 30
0.0
 11
1858.18
 21
231.618
 31
0.0
  0
LINE
  8
0
 62
     250
 10
1858.18
 20
231.618
 30
0.0
 11
1854.48
 21
222.389
 31
0.0
  0
LINE
  8
0
 62
     250
 10
1854.48
 20
222.389
 30
0.0
 11
1850.23
 21
212.848
 31
0.0
  0
LINE
  8
0
 62
     250
 10
1850.23
 20
212.848
 30
0.0
 11
1846.58
 21
205.286
 31
0.0
  0
LINE
  8
0
 62
     250
 10
1846.58
 20
205.286
 30
0.0
 11
1845.32
 21
202.791
 31
0.0
  0
LINE
  8
0
 62
     250
 10
1845.32
 20
202.791
 30
0.0
 11
1842.7
 21
197.623
 31
0.0
  0
LINE
  8
0
 62
     250
 10
1842.7
 20
197.623
 30
0.0
 11
1834.05
 21
182.513
 31
0.0
  0
LINE
  8
0
 62
     250
 10
1834.05
 20
182.513
 30
0.0
 11
1821.34
 21
162.91
 31
0.0
  0
LINE
  8
0
 62
     250
 10
1821.34
 20
162.91
 30
0.0
 11
1807.23
 21
143.527
 31
0.0
  0
LINE
  8
0
 62
     250
 10
1807.23
 20
143.527
 30
0.0
 11
1795.7
 21
128.756
 31
0.0
  0
LINE
  8
0
 62
     250
 10
1795.7
 20
128.756
 30
0.0
 11
1791.77
 21
123.905
 31
0.0
  0
LINE
  8
0
 62
     250
 10
1791.77
 20
123.905
 30
0.0
 11
1789.71
 21
121.371
 31
0.0
  0
LINE
  8
0
 62
     250
 10
1789.71
 20
121.371
 30
0.0
 11
1783.2
 21
114.045
 31
0.0
  0
LINE
  8
0
 62
     250
 10
1783.2
 20
114.045
 30
0.0
 11
1773.8
 21
104.435
 31
0.0
  0
LINE
  8
0
 62
     250
 10
1773.8
 20
104.435
 30
0.0
 11
1763.82
 21
95.1907
 31
0.0
  0
LINE
  8
0
 62
     250
 10
1763.82
 20
95.1907
 30
0.0
 11
1753.53
 21
86.4306
 31
0.0
  0
LINE
  8
0
 62
     250
 10
1753.53
 20
86.4306
 30
0.0
 11
1743.17
 21
78.2712
 31
0.0
  0
LINE
  8
0
 62
     250
 10
1743.17
 20
78.2712
 30
0.0
 11
1733
 21
70.8283
 31
0.0
  0
LINE
  8
0
 62
     250
 10
1733
 20
70.8283
 30
0.0
 11
1723.29
 21
64.2221
 31
0.0
  0
LINE
  8
0
 62
     250
 10
1723.29
 20
64.2221
 30
0.0
 11
1716.56
 21
59.9338
 31
0.0
  0
LINE
  8
0
 62
     250
 10
1716.56
 20
59.9338
 30
0.0
 11
1714.28
 21
58.5653
 31
0.0
  0
LINE
  8
0
 62
     250
 10
1714.28
 20
58.5653
 30
0.0
 11
1712.08
 21
57.2438
 31
0.0
  0
LINE
  8
0
 62
     250
 10
1712.08
 20
57.2438
 30
0.0
 11
1705.29
 21
53.5947
 31
0.0
  0
LINE
  8
0
 62
     250
 10
1705.29
 20
53.5947
 30
0.0
 11
1695.61
 21
48.9864
 31
0.0
  0
LINE
  8
0
 62
     250
 10
1695.61
 20
48.9864
 30
0.0
 11
1685.51
 21
44.7848
 31
0.0
  0
LINE
  8
0
 62
     250
 10
1685.51
 20
44.7848
 30
0.0
 11
1675.26
 21
41.027
 31
0.0
  0
LINE
  8
0
 62
     250
 10
1675.26
 20
41.027
 30
0.0
 11
1665.14
 21
37.7553
 31
0.0
  0
LINE
  8
0
 62
     250
 10
1665.14
 20
37.7553
 30
0.0
 11
1655.41
 21
35.0077
 31
0.0
  0
LINE
  8
0
 62
     250
 10
1655.41
 20
35.0077
 30
0.0
 11
1646.35
 21
32.8263
 31
0.0
  0
LINE
  8
0
 62
     250
 10
1646.35
 20
32.8263
 30
0.0
 11
1640.25
 21
31.5902
 31
0.0
  0
LINE
  8
0
 62
     250
 10
1640.25
 20
31.5902
 30
0.0
 11
1638.21
 21
31.2498
 31
0.0
  0
LINE
  8
0
 62
     250
 10
1638.21
 20
31.2498
 30
0.0
 11
1634.58
 21
30.6462
 31
0.0
  0
LINE
  8
0
 62
     250
 10
1634.58
 20
30.6462
 30
0.0
 11
1623.62
 21
29.2103
 31
0.0
  0
LINE
  8
0
 62
     250
 10
1623.62
 20
29.2103
 30
0.0
 11
1610.02
 21
28.0307
 31
0.0
  0
LINE
  8
0
 62
     250
 10
1610.02
 20
28.0307
 30
0.0
 11
1597.17
 21
27.5594
 31
0.0
  0
LINE
  8
0
 62
     250
 10
1597.17
 20
27.5594
 30
0.0
 11
1587.91
 21
27.5676
 31
0.0
  0
LINE
  8
0
 62
     250
 10
1587.91
 20
27.5676
 30
0.0
 11
1584.83
 21
27.6476
 31
0.0
  0
LINE
  8
0
 62
     250
 10
1584.83
 20
27.6476
 30
0.0
 11
1583.28
 21
27.6889
 31
0.0
  0
LINE
  8
0
 62
     250
 10
1583.28
 20
27.6889
 30
0.0
 11
1578.64
 21
27.9025
 31
0.0
  0
LINE
  8
0
 62
     250
 10
1578.64
 20
27.9025
 30
0.0
 11
1572.2
 21
28.3807
 31
0.0
  0
LINE
  8
0
 62
     250
 10
1572.2
 20
28.3807
 30
0.0
 11
1565.48
 21
29.1303
 31
0.0
  0
LINE
  8
0
 62
     250
 10
1565.48
 20
29.1303
 30
0.0
 11
1558.4
 21
30.1997
 31
0.0
  0
LINE
  8
0
 62
     250
 10
1558.4
 20
30.1997
 30
0.0
 11
1550.93
 21
31.637
 31
0.0
  0
LINE
  8
0
 62
     250
 10
1550.93
 20
31.637
 30
0.0
 11
1543
 21
33.4918
 31
0.0
  0
LINE
  8
0
 62
     250
 10
1543
 20
33.4918
 30
0.0
 11
1534.57
 21
35.8126
 31
0.0
  0
LINE
  8
0
 62
     250
 10
1534.57
 20
35.8126
 30
0.0
 11
1527.81
 21
37.9003
 31
0.0
  0
LINE
  8
0
 62
     250
 10
1527.81
 20
37.9003
 30
0.0
 11
1525.58
 21
38.6472
 31
0.0
  0
LINE
  8
0
 62
     250
 10
1525.58
 20
38.6472
 30
0.0
 11
1524.45
 21
39.026
 31
0.0
  0
LINE
  8
0
 62
     250
 10
1524.45
 20
39.026
 30
0.0
 11
1521.07
 21
40.1906
 31
0.0
  0
LINE
  8
0
 62
     250
 10
1521.07
 20
40.1906
 30
0.0
 11
1516.8
 21
41.7283
 31
0.0
  0
LINE
  8
0
 62
     250
 10
1516.8
 20
41.7283
 30
0.0
 11
1512.73
 21
43.2841
 31
0.0
  0
LINE
  8
0
 62
     250
 10
1512.73
 20
43.2841
 30
0.0
 11
1508.82
 21
44.8839
 31
0.0
  0
LINE
  8
0
 62
     250
 10
1508.82
 20
44.8839
 30
0.0
 11
1505.03
 21
46.5515
 31
0.0
  0
LINE
  8
0
 62
     250
 10
1505.03
 20
46.5515
 30
0.0
 11
1501.33
 21
48.3097
 31
0.0
  0
LINE
  8
0
 62
     250
 10
1501.33
 20
48.3097
 30
0.0
 11
1497.68
 21
50.1855
 31
0.0
  0
LINE
  8
0
 62
     250
 10
1497.68
 20
50.1855
 30
0.0
 11
1494.03
 21
52.2016
 31
0.0
  0
LINE
  8
0
 62
     250
 10
1494.03
 20
52.2016
 30
0.0
 11
1490.35
 21
54.3842
 31
0.0
  0
LINE
  8
0
 62
     250
 10
1490.35
 20
54.3842
 30
0.0
 11
1486.59
 21
56.7545
 31
0.0
  0
LINE
  8
0
 62
     250
 10
1486.59
 20
56.7545
 30
0.0
 11
1482.73
 21
59.3397
 31
0.0
  0
LINE
  8
0
 62
     250
 10
1482.73
 20
59.3397
 30
0.0
 11
1478.71
 21
62.1647
 31
0.0
  0
LINE
  8
0
 62
     250
 10
1478.71
 20
62.1647
 30
0.0
 11
1474.51
 21
65.2515
 31
0.0
  0
LINE
  8
0
 62
     250
 10
1474.51
 20
65.2515
 30
0.0
 11
1470.07
 21
68.6262
 31
0.0
  0
LINE
  8
0
 62
     250
 10
1470.07
 20
68.6262
 30
0.0
 11
1465.37
 21
72.3124
 31
0.0
  0
LINE
  8
0
 62
     250
 10
1465.37
 20
72.3124
 30
0.0
 11
1461.61
 21
75.3223
 31
0.0
  0
LINE
  8
0
 62
     250
 10
1461.61
 20
75.3223
 30
0.0
 11
1460.37
 21
76.3337
 31
0.0
  0
LINE
  8
0
 62
     250
 10
1460.37
 20
76.3337
 30
0.0
 11
1459.05
 21
77.4058
 31
0.0
  0
LINE
  8
0
 62
     250
 10
1459.05
 20
77.4058
 30
0.0
 11
1455.17
 21
80.7311
 31
0.0
  0
LINE
  8
0
 62
     250
 10
1455.17
 20
80.7311
 30
0.0
 11
1449.97
 21
85.4756
 31
0.0
  0
LINE
  8
0
 62
     250
 10
1449.97
 20
85.4756
 30
0.0
 11
1444.79
 21
90.5041
 31
0.0
  0
LINE
  8
0
 62
     250
 10
1444.79
 20
90.5041
 30
0.0
 11
1439.66
 21
95.7432
 31
0.0
  0
LINE
  8
0
 62
     250
 10
1439.66
 20
95.7432
 30
0.0
 11
1434.63
 21
101.129
 31
0.0
  0
LINE
  8
0
 62
     250
 10
1434.63
 20
101.129
 30
0.0
 11
1429.73
 21
106.591
 31
0.0
  0
LINE
  8
0
 62
     250
 10
1429.73
 20
106.591
 30
0.0
 11
1424.98
 21
112.062
 31
0.0
  0
LINE
  8
0
 62
     250
 10
1424.98
 20
112.062
 30
0.0
 11
1420.43
 21
117.472
 31
0.0
  0
LINE
  8
0
 62
     250
 10
1420.43
 20
117.472
 30
0.0
 11
1416.11
 21
122.756
 31
0.0
  0
LINE
  8
0
 62
     250
 10
1416.11
 20
122.756
 30
0.0
 11
1412.06
 21
127.841
 31
0.0
  0
LINE
  8
0
 62
     250
 10
1412.06
 20
127.841
 30
0.0
 11
1408.31
 21
132.662
 31
0.0
  0
LINE
  8
0
 62
     250
 10
1408.31
 20
132.662
 30
0.0
 11
1404.89
 21
137.15
 31
0.0
  0
LINE
  8
0
 62
     250
 10
1404.89
 20
137.15
 30
0.0
 11
1401.84
 21
141.238
 31
0.0
  0
LINE
  8
0
 62
     250
 10
1401.84
 20
141.238
 30
0.0
 11
1399.2
 21
144.857
 31
0.0
  0
LINE
  8
0
 62
     250
 10
1399.2
 20
144.857
 30
0.0
 11
1397
 21
147.937
 31
0.0
  0
LINE
  8
0
 62
     250
 10
1397
 20
147.937
 30
0.0
 11
1395.7
 21
149.79
 31
0.0
  0
LINE
  8
0
 62
     250
 10
1395.7
 20
149.79
 30
0.0
 11
1395.27
 21
150.41
 31
0.0
  0
LINE
  8
0
 62
     250
 10
1395.27
 20
150.41
 30
0.0
 11
1394.86
 21
151.004
 31
0.0
  0
LINE
  8
0
 62
     250
 10
1394.86
 20
151.004
 30
0.0
 11
1393.72
 21
152.842
 31
0.0
  0
LINE
  8
0
 62
     250
 10
1393.72
 20
152.842
 30
0.0
 11
1392.04
 21
155.795
 31
0.0
  0
LINE
  8
0
 62
     250
 10
1392.04
 20
155.795
 30
0.0
 11
1390.25
 21
159.199
 31
0.0
  0
LINE
  8
0
 62
     250
 10
1390.25
 20
159.199
 30
0.0
 11
1388.4
 21
162.985
 31
0.0
  0
LINE
  8
0
 62
     250
 10
1388.4
 20
162.985
 30
0.0
 11
1386.48
 21
167.082
 31
0.0
  0
LINE
  8
0
 62
     250
 10
1386.48
 20
167.082
 30
0.0
 11
1384.54
 21
171.422
 31
0.0
  0
LINE
  8
0
 62
     250
 10
1384.54
 20
171.422
 30
0.0
 11
1382.59
 21
175.937
 31
0.0
  0
LINE
  8
0
 62
     250
 10
1382.59
 20
175.937
 30
0.0
 11
1380.67
 21
180.555
 31
0.0
  0
LINE
  8
0
 62
     250
 10
1380.67
 20
180.555
 30
0.0
 11
1378.8
 21
185.207
 31
0.0
  0
LINE
  8
0
 62
     250
 10
1378.8
 20
185.207
 30
0.0
 11
1377
 21
189.825
 31
0.0
  0
LINE
  8
0
 62
     250
 10
1377
 20
189.825
 30
0.0
 11
1375.3
 21
194.338
 31
0.0
  0
LINE
  8
0
 62
     250
 10
1375.3
 20
194.338
 30
0.0
 11
1373.72
 21
198.679
 31
0.0
  0
LINE
  8
0
 62
     250
 10
1373.72
 20
198.679
 30
0.0
 11
1372.29
 21
202.774
 31
0.0
  0
LINE
  8
0
 62
     250
 10
1372.29
 20
202.774
 30
0.0
 11
1371.04
 21
206.558
 31
0.0
  0
LINE
  8
0
 62
     250
 10
1371.04
 20
206.558
 30
0.0
 11
1369.98
 21
209.961
 31
0.0
  0
LINE
  8
0
 62
     250
 10
1369.98
 20
209.961
 30
0.0
 11
1369.35
 21
212.17
 31
0.0
  0
LINE
  8
0
 62
     250
 10
1369.35
 20
212.17
 30
0.0
 11
1369.15
 21
212.91
 31
0.0
  0
LINE
  8
0
 62
     250
 10
1369.15
 20
212.91
 30
0.0
 11
1368.95
 21
213.659
 31
0.0
  0
LINE
  8
0
 62
     250
 10
1368.95
 20
213.659
 30
0.0
 11
1368.42
 21
215.923
 31
0.0
  0
LINE
  8
0
 62
     250
 10
1368.42
 20
215.923
 30
0.0
 11
1367.64
 21
219.524
 31
0.0
  0
LINE
  8
0
 62
     250
 10
1367.64
 20
219.524
 30
0.0
 11
1366.83
 21
223.655
 31
0.0
  0
LINE
  8
0
 62
     250
 10
1366.83
 20
223.655
 30
0.0
 11
1365.99
 21
228.261
 31
0.0
  0
LINE
  8
0
 62
     250
 10
1365.99
 20
228.261
 30
0.0
 11
1365.14
 21
233.288
 31
0.0
  0
LINE
  8
0
 62
     250
 10
1365.14
 20
233.288
 30
0.0
 11
1364.28
 21
238.677
 31
0.0
  0
LINE
  8
0
 62
     250
 10
1364.28
 20
238.677
 30
0.0
 11
1363.43
 21
244.376
 31
0.0
  0
LINE
  8
0
 62
     250
 10
1363.43
 20
244.376
 30
0.0
 11
1362.58
 21
250.326
 31
0.0
  0
LINE
  8
0
 62
     250
 10
1362.58
 20
250.326
 30
0.0
 11
1361.76
 21
256.474
 31
0.0
  0
LINE
  8
0
 62
     250
 10
1361.76
 20
256.474
 30
0.0
 11
1360.96
 21
262.76
 31
0.0
  0
LINE
  8
0
 62
     250
 10
1360.96
 20
262.76
 30
0.0
 11
1360.2
 21
269.133
 31
0.0
  0
LINE
  8
0
 62
     250
 10
1360.2
 20
269.133
 30
0.0
 11
1359.49
 21
275.535
 31
0.0
  0
LINE
  8
0
 62
     250
 10
1359.49
 20
275.535
 30
0.0
 11
1358.83
 21
281.909
 31
0.0
  0
LINE
  8
0
 62
     250
 10
1358.83
 20
281.909
 30
0.0
 11
1358.24
 21
288.201
 31
0.0
  0
LINE
  8
0
 62
     250
 10
1358.24
 20
288.201
 30
0.0
 11
1357.72
 21
294.356
 31
0.0
  0
LINE
  8
0
 62
     250
 10
1357.72
 20
294.356
 30
0.0
 11
1357.38
 21
298.826
 31
0.0
  0
LINE
  8
0
 62
     250
 10
1357.38
 20
298.826
 30
0.0
 11
1357.28
 21
300.316
 31
0.0
  0
LINE
  8
0
 62
     250
 10
1357.28
 20
300.316
 30
0.0
 11
1357.08
 21
303.296
 31
0.0
  0
LINE
  8
0
 62
     250
 10
1357.08
 20
303.296
 30
0.0
 11
1356.6
 21
312.245
 31
0.0
  0
LINE
  8
0
 62
     250
 10
1356.6
 20
312.245
 30
0.0
 11
1356.13
 21
324.56
 31
0.0
  0
LINE
  8
0
 62
     250
 10
1356.13
 20
324.56
 30
0.0
 11
1355.87
 21
337.116
 31
0.0
  0
LINE
  8
0
 62
     250
 10
1355.87
 20
337.116
 30
0.0
 11
1355.83
 21
349.771
 31
0.0
  0
LINE
  8
0
 62
     250
 10
1355.83
 20
349.771
 30
0.0
 11
1356.01
 21
362.38
 31
0.0
  0
LINE
  8
0
 62
     250
 10
1356.01
 20
362.38
 30
0.0
 11
1356.42
 21
374.802
 31
0.0
  0
LINE
  8
0
 62
     250
 10
1356.42
 20
374.802
 30
0.0
 11
1357.05
 21
386.891
 31
0.0
  0
LINE
  8
0
 62
     250
 10
1357.05
 20
386.891
 30
0.0
 11
1357.66
 21
395.609
 31
0.0
  0
LINE
  8
0
 62
     250
 10
1357.66
 20
395.609
 30
0.0
 11
1357.91
 21
398.508
 31
0.0
  0
LINE
  8
0
 62
     250
 10
1357.91
 20
398.508
 30
0.0
 11
1358.16
 21
401.468
 31
0.0
  0
LINE
  8
0
 62
     250
 10
1358.16
 20
401.468
 30
0.0
 11
1359.07
 21
410.348
 31
0.0
  0
LINE
  8
0
 62
     250
 10
1359.07
 20
410.348
 30
0.0
 11
1360.55
 21
422.938
 31
0.0
  0
LINE
  8
0
 62
     250
 10
1360.55
 20
422.938
 30
0.0
 11
1362.29
 21
435.896
 31
0.0
  0
LINE
  8
0
 62
     250
 10
1362.29
 20
435.896
 30
0.0
 11
1364.22
 21
448.818
 31
0.0
  0
LINE
  8
0
 62
     250
 10
1364.22
 20
448.818
 30
0.0
 11
1366.27
 21
461.313
 31
0.0
  0
LINE
  8
0
 62
     250
 10
1366.27
 20
461.313
 30
0.0
 11
1368.37
 21
472.99
 31
0.0
  0
LINE
  8
0
 62
     250
 10
1368.37
 20
472.99
 30
0.0
 11
1370.44
 21
483.45
 31
0.0
  0
LINE
  8
0
 62
     250
 10
1370.44
 20
483.45
 30
0.0
 11
1371.9
 21
490.104
 31
0.0
  0
LINE
  8
0
 62
     250
 10
1371.9
 20
490.104
 30
0.0
 11
1372.44
 21
492.305
 31
0.0
  0
LINE
  8
0
 62
     250
 10
1372.44
 20
492.305
 30
0.0
 11
1372.92
 21
494.295
 31
0.0
  0
LINE
  8
0
 62
     250
 10
1372.92
 20
494.295
 30
0.0
 11
1374.62
 21
500.197
 31
0.0
  0
LINE
  8
0
 62
     250
 10
1374.62
 20
500.197
 30
0.0
 11
1377.29
 21
507.982
 31
0.0
  0
LINE
  8
0
 62
     250
 10
1377.29
 20
507.982
 30
0.0
 11
1380.38
 21
515.602
 31
0.0
  0
LINE
  8
0
 62
     250
 10
1380.38
 20
515.602
 30
0.0
 11
1383.84
 21
523
 31
0.0
  0
LINE
  8
0
 62
     250
 10
1383.84
 20
523
 30
0.0
 11
1387.59
 21
530.112
 31
0.0
  0
LINE
  8
0
 62
     250
 10
1387.59
 20
530.112
 30
0.0
 11
1391.58
 21
536.871
 31
0.0
  0
LINE
  8
0
 62
     250
 10
1391.58
 20
536.871
 30
0.0
 11
1395.74
 21
543.218
 31
0.0
  0
LINE
  8
0
 62
     250
 10
1395.74
 20
543.218
 30
0.0
 11
1398.91
 21
547.649
 31
0.0
  0
LINE
  8
0
 62
     250
 10
1398.91
 20
547.649
 30
0.0
 11
1400.01
 21
549.092
 31
0.0
  0
LINE
  8
0
 62
     250
 10
1400.01
 20
549.092
 30
0.0
 11
1401.12
 21
550.534
 31
0.0
  0
LINE
  8
0
 62
     250
 10
1401.12
 20
550.534
 30
0.0
 11
1404.59
 21
554.761
 31
0.0
  0
LINE
  8
0
 62
     250
 10
1404.59
 20
554.761
 30
0.0
 11
1409.7
 21
560.469
 31
0.0
  0
LINE
  8
0
 62
     250
 10
1409.7
 20
560.469
 30
0.0
 11
1415.38
 21
566.106
 31
0.0
  0
LINE
  8
0
 62
     250
 10
1415.38
 20
566.106
 30
0.0
 11
1421.62
 21
571.567
 31
0.0
  0
LINE
  8
0
 62
     250
 10
1421.62
 20
571.567
 30
0.0
 11
1428.46
 21
576.746
 31
0.0
  0
LINE
  8
0
 62
     250
 10
1428.46
 20
576.746
 30
0.0
 11
1435.91
 21
581.533
 31
0.0
  0
LINE
  8
0
 62
     250
 10
1435.91
 20
581.533
 30
0.0
 11
1443.98
 21
585.83
 31
0.0
  0
LINE
  8
0
 62
     250
 10
1443.98
 20
585.83
 30
0.0
 11
1450.48
 21
588.698
 31
0.0
  0
LINE
  8
0
 62
     250
 10
1450.48
 20
588.698
 30
0.0
 11
1452.7
 21
589.52
 31
0.0
  0
LINE
  8
0
 62
     250
 10
1452.7
 20
589.52
 30
0.0
 11
1453.87
 21
589.957
 31
0.0
  0
LINE
  8
0
 62
     250
 10
1453.87
 20
589.957
 30
0.0
 11
1457.44
 21
591.157
 31
0.0
  0
LINE
  8
0
 62
     250
 10
1457.44
 20
591.157
 30
0.0
 11
1462.61
 21
592.709
 31
0.0
  0
LINE
  8
0
 62
     250
 10
1462.61
 20
592.709
 30
0.0
 11
1468.1
 21
594.177
 31
0.0
  0
LINE
  8
0
 62
     250
 10
1468.1
 20
594.177
 30
0.0
 11
1473.86
 21
595.559
 31
0.0
  0
LINE
  8
0
 62
     250
 10
1473.86
 20
595.559
 30
0.0
 11
1479.8
 21
596.854
 31
0.0
  0
LINE
  8
0
 62
     250
 10
1479.8
 20
596.854
 30
0.0
 11
1485.85
 21
598.064
 31
0.0
  0
LINE
  8
0
 62
     250
 10
1485.85
 20
598.064
 30
0.0
 11
1491.94
 21
599.19
 31
0.0
  0
LINE
  8
0
 62
     250
 10
1491.94
 20
599.19
 30
0.0
 11
1497.99
 21
600.227
 31
0.0
  0
LINE
  8
0
 62
     250
 10
1497.99
 20
600.227
 30
0.0
 11
1503.93
 21
601.179
 31
0.0
  0
LINE
  8
0
 62
     250
 10
1503.93
 20
601.179
 30
0.0
 11
1509.67
 21
602.047
 31
0.0
  0
LINE
  8
0
 62
     250
 10
1509.67
 20
602.047
 30
0.0
 11
1515.15
 21
602.823
 31
0.0
  0
LINE
  8
0
 62
     250
 10
1515.15
 20
602.823
 30
0.0
 11
1520.3
 21
603.515
 31
0.0
  0
LINE
  8
0
 62
     250
 10
1520.3
 20
603.515
 30
0.0
 11
1525.02
 21
604.118
 31
0.0
  0
LINE
  8
0
 62
     250
 10
1525.02
 20
604.118
 30
0.0
 11
1529.26
 21
604.633
 31
0.0
  0
LINE
  8
0
 62
     250
 10
1529.26
 20
604.633
 30
0.0
 11
1532.93
 21
605.06
 31
0.0
  0
LINE
  8
0
 62
     250
 10
1532.93
 20
605.06
 30
0.0
 11
1535.2
 21
605.314
 31
0.0
  0
LINE
  8
0
 62
     250
 10
1535.2
 20
605.314
 30
0.0
 11
1535.96
 21
605.398
 31
0.0
  0
LINE
  8
0
 62
     250
 10
1535.96
 20
605.398
 30
0.0
 11
1537.48
 21
605.564
 31
0.0
  0
LINE
  8
0
 62
     250
 10
1537.48
 20
605.564
 30
0.0
 11
1542.06
 21
605.952
 31
0.0
  0
LINE
  8
0
 62
     250
 10
1542.06
 20
605.952
 30
0.0
 11
1549.31
 21
606.432
 31
0.0
  0
LINE
  8
0
 62
     250
 10
1549.31
 20
606.432
 30
0.0
 11
1557.35
 21
606.834
 31
0.0
  0
LINE
  8
0
 62
     250
 10
1557.35
 20
606.834
 30
0.0
 11
1565.78
 21
607.152
 31
0.0
  0
LINE
  8
0
 62
     250
 10
1565.78
 20
607.152
 30
0.0
 11
1574.2
 21
607.377
 31
0.0
  0
LINE
  8
0
 62
     250
 10
1574.2
 20
607.377
 30
0.0
 11
1582.23
 21
607.505
 31
0.0
  0
LINE
  8
0
 62
     250
 10
1582.23
 20
607.505
 30
0.0
 11
1589.48
 21
607.529
 31
0.0
  0
LINE
  8
0
 62
     250
 10
1589.48
 20
607.529
 30
0.0
 11
1594.04
 21
607.487
 31
0.0
  0
LINE
  8
0
 62
     250
 10
1594.04
 20
607.487
 30
0.0
 11
1595.55
 21
607.445
 31
0.0
  0
LINE
  8
0
 62
     250
 10
1595.55
 20
607.445
 30
0.0
 11
1596.31
 21
607.427
 31
0.0
  0
LINE
  8
0
 62
     250
 10
1596.31
 20
607.427
 30
0.0
 11
1598.56
 21
607.332
 31
0.0
  0
LINE
  8
0
 62
     250
 10
1598.56
 20
607.332
 30
0.0
 11
1602.16
 21
607.131
 31
0.0
  0
LINE
  8
0
 62
     250
 10
1602.16
 20
607.131
 30
0.0
 11
1606.28
 21
606.848
 31
0.0
  0
LINE
  8
0
 62
     250
 10
1606.28
 20
606.848
 30
0.0
 11
1610.85
 21
606.496
 31
0.0
  0
LINE
  8
0
 62
     250
 10
1610.85
 20
606.496
 30
0.0
 11
1615.78
 21
606.072
 31
0.0
  0
LINE
  8
0
 62
     250
 10
1615.78
 20
606.072
 30
0.0
 11
1621.01
 21
605.592
 31
0.0
  0
LINE
  8
0
 62
     250
 10
1621.01
 20
605.592
 30
0.0
 11
1626.46
 21
605.06
 31
0.0
  0
LINE
  8
0
 62
     250
 10
1626.46
 20
605.06
 30
0.0
 11
1632.05
 21
604.478
 31
0.0
  0
LINE
  8
0
 62
     250
 10
1632.05
 20
604.478
 30
0.0
 11
1637.7
 21
603.853
 31
0.0
  0
LINE
  8
0
 62
     250
 10
1637.7
 20
603.853
 30
0.0
 11
1643.33
 21
603.197
 31
0.0
  0
LINE
  8
0
 62
     250
 10
1643.33
 20
603.197
 30
0.0
 11
1648.88
 21
602.513
 31
0.0
  0
LINE
  8
0
 62
     250
 10
1648.88
 20
602.513
 30
0.0
 11
1654.27
 21
601.807
 31
0.0
  0
LINE
  8
0
 62
     250
 10
1654.27
 20
601.807
 30
0.0
 11
1659.41
 21
601.084
 31
0.0
  0
LINE
  8
0
 62
     250
 10
1659.41
 20
601.084
 30
0.0
 11
1664.24
 21
600.357
 31
0.0
  0
LINE
  8
0
 62
     250
 10
1664.24
 20
600.357
 30
0.0
 11
1668.67
 21
599.627
 31
0.0
  0
LINE
  8
0
 62
     250
 10
1668.67
 20
599.627
 30
0.0
 11
1671.64
 21
599.091
 31
0.0
  0
LINE
  8
0
 62
     250
 10
1671.64
 20
599.091
 30
0.0
 11
1672.63
 21
598.897
 31
0.0
  0
LINE
  8
0
 62
     250
 10
1672.63
 20
598.897
 30
0.0
 11
1674.58
 21
598.519
 31
0.0
  0
LINE
  8
0
 62
     250
 10
1674.58
 20
598.519
 30
0.0
 11
1680.44
 21
597.348
 31
0.0
  0
LINE
  8
0
 62
     250
 10
1680.44
 20
597.348
 30
0.0
 11
1688.92
 21
595.609
 31
0.0
  0
LINE
  8
0
 62
     250
 10
1688.92
 20
595.609
 30
0.0
 11
1697.85
 21
593.704
 31
0.0
  0
LINE
  8
0
 62
     250
 10
1697.85
 20
593.704
 30
0.0
 11
1707.03
 21
591.658
 31
0.0
  0
LINE
  8
0
 62
     250
 10
1707.03
 20
591.658
 30
0.0
 11
1716.25
 21
589.506
 31
0.0
  0
LINE
  8
0
 62
     250
 10
1716.25
 20
589.506
 30
0.0
 11
1725.29
 21
587.262
 31
0.0
  0
LINE
  8
0
 62
     250
 10
1725.29
 20
587.262
 30
0.0
 11
1733.95
 21
584.966
 31
0.0
  0
LINE
  8
0
 62
     250
 10
1733.95
 20
584.966
 30
0.0
 11
1740.01
 21
583.244
 31
0.0
  0
LINE
  8
0
 62
     250
 10
1740.01
 20
583.244
 30
0.0
 11
1742.01
 21
582.634
 31
0.0
  0
LINE
  8
0
 62
     250
 10
1742.01
 20
582.634
 30
0.0
 11
1744.01
 21
582.027
 31
0.0
  0
LINE
  8
0
 62
     250
 10
1744.01
 20
582.027
 30
0.0
 11
1749.95
 21
580.083
 31
0.0
  0
LINE
  8
0
 62
     250
 10
1749.95
 20
580.083
 30
0.0
 11
1758.26
 21
577.123
 31
0.0
  0
LINE
  8
0
 62
     250
 10
1758.26
 20
577.123
 30
0.0
 11
1766.74
 21
573.768
 31
0.0
  0
LINE
  8
0
 62
     250
 10
1766.74
 20
573.768
 30
0.0
 11
1775.2
 21
570.043
 31
0.0
  0
LINE
  8
0
 62
     250
 10
1775.2
 20
570.043
 30
0.0
 11
1783.44
 21
565.965
 31
0.0
  0
LINE
  8
0
 62
     250
 10
1783.44
 20
565.965
 30
0.0
 11
1791.26
 21
561.555
 31
0.0
  0
LINE
  8
0
 62
     250
 10
1791.26
 20
561.555
 30
0.0
 11
1798.49
 21
556.832
 31
0.0
  0
LINE
  8
0
 62
     250
 10
1798.49
 20
556.832
 30
0.0
 11
1803.37
 21
553.145
 31
0.0
  0
LINE
  8
0
 62
     250
 10
1803.37
 20
553.145
 30
0.0
 11
1804.91
 21
551.815
 31
0.0
  0
LINE
  8
0
 62
     250
 10
1804.91
 20
551.815
 30
0.0
 11
1806.44
 21
550.485
 31
0.0
  0
LINE
  8
0
 62
     250
 10
1806.44
 20
550.485
 30
0.0
 11
1810.96
 21
546.414
 31
0.0
  0
LINE
  8
0
 62
     250
 10
1810.96
 20
546.414
 30
0.0
 11
1817.12
 21
540.575
 31
0.0
  0
LINE
  8
0
 62
     250
 10
1817.12
 20
540.575
 30
0.0
 11
1823.23
 21
534.384
 31
0.0
  0
LINE
  8
0
 62
     250
 10
1823.23
 20
534.384
 30
0.0
 11
1829.16
 21
527.911
 31
0.0
  0
LINE
  8
0
 62
     250
 10
1829.16
 20
527.911
 30
0.0
 11
1834.75
 21
521.24
 31
0.0
  0
LINE
  8
0
 62
     250
 10
1834.75
 20
521.24
 30
0.0
 11
1839.88
 21
514.449
 31
0.0
  0
LINE
  8
0
 62
     250
 10
1839.88
 20
514.449
 30
0.0
 11
1844.38
 21
507.612
 31
0.0
  0
LINE
  8
0
 62
     250
 10
1844.38
 20
507.612
 30
0.0
 11
1847.27
 21
502.553
 31
0.0
  0
LINE
  8
0
 62
     250
 10
1847.27
 20
502.553
 30
0.0
 11
1848.12
 21
500.814
 31
0.0
  0
LINE
  8
0
 62
     250
 10
1848.12
 20
500.814
 30
0.0
 11
1848.95
 21
499.114
 31
0.0
  0
LINE
  8
0
 62
     250
 10
1848.95
 20
499.114
 30
0.0
 11
1851.46
 21
494.019
 31
0.0
  0
LINE
  8
0
 62
     250
 10
1851.46
 20
494.019
 30
0.0
 11
1854.81
 21
487.056
 31
0.0
  0
LINE
  8
0
 62
     250
 10
1854.81
 20
487.056
 30
0.0
 11
1858.11
 21
479.802
 31
0.0
  0
LINE
  8
0
 62
     250
 10
1858.11
 20
479.802
 30
0.0
 11
1861.28
 21
472.13
 31
0.0
  0
LINE
  8
0
 62
     250
 10
1861.28
 20
472.13
 30
0.0
 11
1864.28
 21
463.92
 31
0.0
  0
LINE
  8
0
 62
     250
 10
1864.28
 20
463.92
 30
0.0
 11
1867.02
 21
455.041
 31
0.0
  0
LINE
  8
0
 62
     250
 10
1867.02
 20
455.041
 30
0.0
 11
1869.46
 21
445.368
 31
0.0
  0
LINE
  8
0
 62
     250
 10
1869.46
 20
445.368
 30
0.0
 11
1871.07
 21
437.434
 31
0.0
  0
LINE
  8
0
 62
     250
 10
1871.07
 20
437.434
 30
0.0
 11
1871.51
 21
434.774
 31
0.0
  0
LINE
  8
0
 62
     250
 10
1871.51
 20
434.774
 30
0.0
 11
1871.98
 21
431.962
 31
0.0
  0
LINE
  8
0
 62
     250
 10
1871.98
 20
431.962
 30
0.0
 11
1873.26
 21
423.503
 31
0.0
  0
LINE
  8
0
 62
     250
 10
1873.26
 20
423.503
 30
0.0
 11
1874.79
 21
412.002
 31
0.0
  0
LINE
  8
0
 62
     250
 10
1874.79
 20
412.002
 30
0.0
 11
1876.1
 21
400.491
 31
0.0
  0
LINE
  8
0
 62
     250
 10
1876.1
 20
400.491
 30
0.0
 11
1877.17
 21
389.188
 31
0.0
  0
LINE
  8
0
 62
     250
 10
1877.17
 20
389.188
 30
0.0
 11
1877.99
 21
378.298
 31
0.0
  0
LINE
  8
0
 62
     250
 10
1877.99
 20
378.298
 30
0.0
 11
1878.53
 21
368.039
 31
0.0
  0
LINE
  8
0
 62
     250
 10
1878.53
 20
368.039
 30
0.0
 11
1878.79
 21
358.623
 31
0.0
  0
LINE
  8
0
 62
     250
 10
1878.79
 20
358.623
 30
0.0
 11
1878.79
 21
352.356
 31
0.0
  0
LINE
  8
0
 62
     250
 10
1878.79
 20
352.356
 30
0.0
 11
1878.74
 21
350.268
 31
0.0
  0
LINE
  8
0
 62
     250
 10
1395.1
 20
504.352
 30
0.0
 11
1395.36
 21
505.46
 31
0.0
  0
LINE
  8
0
 62
     250
 10
1395.36
 20
505.46
 30
0.0
 11
1396.17
 21
508.787
 31
0.0
  0
LINE
  8
0
 62
     250
 10
1396.17
 20
508.787
 30
0.0
 11
1397.47
 21
513.856
 31
0.0
  0
LINE
  8
0
 62
     250
 10
1397.47
 20
513.856
 30
0.0
 11
1398.94
 21
519.285
 31
0.0
  0
LINE
  8
0
 62
     250
 10
1398.94
 20
519.285
 30
0.0
 11
1400.57
 21
524.803
 31
0.0
  0
LINE
  8
0
 62
     250
 10
1400.57
 20
524.803
 30
0.0
 11
1402.3
 21
530.13
 31
0.0
  0
LINE
  8
0
 62
     250
 10
1402.3
 20
530.13
 30
0.0
 11
1404.12
 21
534.995
 31
0.0
  0
LINE
  8
0
 62
     250
 10
1404.12
 20
534.995
 30
0.0
 11
1405.99
 21
539.115
 31
0.0
  0
LINE
  8
0
 62
     250
 10
1405.99
 20
539.115
 30
0.0
 11
1407.34
 21
541.496
 31
0.0
  0
LINE
  8
0
 62
     250
 10
1407.34
 20
541.496
 30
0.0
 11
1407.88
 21
542.216
 31
0.0
  0
LINE
  8
0
 62
     250
 10
1407.88
 20
542.216
 30
0.0
 11
1408.48
 21
543.01
 31
0.0
  0
LINE
  8
0
 62
     250
 10
1408.48
 20
543.01
 30
0.0
 11
1410.38
 21
545.31
 31
0.0
  0
LINE
  8
0
 62
     250
 10
1410.38
 20
545.31
 30
0.0
 11
1413.97
 21
549.363
 31
0.0
  0
LINE
  8
0
 62
     250
 10
1413.97
 20
549.363
 30
0.0
 11
1418.47
 21
554.066
 31
0.0
  0
LINE
  8
0
 62
     250
 10
1418.47
 20
554.066
 30
0.0
 11
1423.69
 21
559.096
 31
0.0
  0
LINE
  8
0
 62
     250
 10
1423.69
 20
559.096
 30
0.0
 11
1429.45
 21
564.141
 31
0.0
  0
LINE
  8
0
 62
     250
 10
1429.45
 20
564.141
 30
0.0
 11
1435.55
 21
568.879
 31
0.0
  0
LINE
  8
0
 62
     250
 10
1435.55
 20
568.879
 30
0.0
 11
1441.81
 21
572.992
 31
0.0
  0
LINE
  8
0
 62
     250
 10
1441.81
 20
572.992
 30
0.0
 11
1446.44
 21
575.49
 31
0.0
  0
LINE
  8
0
 62
     250
 10
1446.44
 20
575.49
 30
0.0
 11
1448.05
 21
576.167
 31
0.0
  0
LINE
  8
0
 62
     250
 10
1448.05
 20
576.167
 30
0.0
 11
1449.66
 21
576.848
 31
0.0
  0
LINE
  8
0
 62
     250
 10
1449.66
 20
576.848
 30
0.0
 11
1454.56
 21
578.728
 31
0.0
  0
LINE
  8
0
 62
     250
 10
1454.56
 20
578.728
 30
0.0
 11
1461.75
 21
581.194
 31
0.0
  0
LINE
  8
0
 62
     250
 10
1461.75
 20
581.194
 30
0.0
 11
1469.54
 21
583.544
 31
0.0
  0
LINE
  8
0
 62
     250
 10
1469.54
 20
583.544
 30
0.0
 11
1477.87
 21
585.752
 31
0.0
  0
LINE
  8
0
 62
     250
 10
1477.87
 20
585.752
 30
0.0
 11
1486.68
 21
587.802
 31
0.0
  0
LINE
  8
0
 62
     250
 10
1486.68
 20
587.802
 30
0.0
 11
1495.88
 21
589.665
 31
0.0
  0
LINE
  8
0
 62
     250
 10
1495.88
 20
589.665
 30
0.0
 11
1505.42
 21
591.319
 31
0.0
  0
LINE
  8
0
 62
     250
 10
1505.42
 20
591.319
 30
0.0
 11
1512.77
 21
592.42
 31
0.0
  0
LINE
  8
0
 62
     250
 10
1512.77
 20
592.42
 30
0.0
 11
1515.23
 21
592.744
 31
0.0
  0
LINE
  8
0
 62
     250
 10
1515.23
 20
592.744
 30
0.0
 11
1517.81
 21
593.083
 31
0.0
  0
LINE
  8
0
 62
     250
 10
1517.81
 20
593.083
 30
0.0
 11
1525.55
 21
593.983
 31
0.0
  0
LINE
  8
0
 62
     250
 10
1525.55
 20
593.983
 30
0.0
 11
1536.49
 21
595.076
 31
0.0
  0
LINE
  8
0
 62
     250
 10
1536.49
 20
595.076
 30
0.0
 11
1547.82
 21
595.986
 31
0.0
  0
LINE
  8
0
 62
     250
 10
1547.82
 20
595.986
 30
0.0
 11
1559.29
 21
596.678
 31
0.0
  0
LINE
  8
0
 62
     250
 10
1559.29
 20
596.678
 30
0.0
 11
1570.67
 21
597.119
 31
0.0
  0
LINE
  8
0
 62
     250
 10
1570.67
 20
597.119
 30
0.0
 11
1581.7
 21
597.274
 31
0.0
  0
LINE
  8
0
 62
     250
 10
1581.7
 20
597.274
 30
0.0
 11
1592.16
 21
597.108
 31
0.0
  0
LINE
  8
0
 62
     250
 10
1592.16
 20
597.108
 30
0.0
 11
1599.39
 21
596.773
 31
0.0
  0
LINE
  8
0
 62
     250
 10
1599.39
 20
596.773
 30
0.0
 11
1601.79
 21
596.586
 31
0.0
  0
LINE
  8
0
 62
     250
 10
1601.79
 20
596.586
 30
0.0
 11
1604.34
 21
596.388
 31
0.0
  0
LINE
  8
0
 62
     250
 10
1604.34
 20
596.388
 30
0.0
 11
1611.97
 21
595.623
 31
0.0
  0
LINE
  8
0
 62
     250
 10
1611.97
 20
595.623
 30
0.0
 11
1623.82
 21
594.184
 31
0.0
  0
LINE
  8
0
 62
     250
 10
1623.82
 20
594.184
 30
0.0
 11
1636.81
 21
592.353
 31
0.0
  0
LINE
  8
0
 62
     250
 10
1636.81
 20
592.353
 30
0.0
 11
1650.35
 21
590.194
 31
0.0
  0
LINE
  8
0
 62
     250
 10
1650.35
 20
590.194
 30
0.0
 11
1663.9
 21
587.781
 31
0.0
  0
LINE
  8
0
 62
     250
 10
1663.9
 20
587.781
 30
0.0
 11
1676.89
 21
585.184
 31
0.0
  0
LINE
  8
0
 62
     250
 10
1676.89
 20
585.184
 30
0.0
 11
1688.74
 21
582.478
 31
0.0
  0
LINE
  8
0
 62
     250
 10
1688.74
 20
582.478
 30
0.0
 11
1696.39
 21
580.489
 31
0.0
  0
LINE
  8
0
 62
     250
 10
1696.39
 20
580.489
 30
0.0
 11
1698.91
 21
579.734
 31
0.0
  0
LINE
  8
0
 62
     250
 10
1698.91
 20
579.734
 30
0.0
 11
1701.25
 21
579.032
 31
0.0
  0
LINE
  8
0
 62
     250
 10
1701.25
 20
579.032
 30
0.0
 11
1708.22
 21
576.725
 31
0.0
  0
LINE
  8
0
 62
     250
 10
1708.22
 20
576.725
 30
0.0
 11
1717.76
 21
573.211
 31
0.0
  0
LINE
  8
0
 62
     250
 10
1717.76
 20
573.211
 30
0.0
 11
1727.41
 21
569.246
 31
0.0
  0
LINE
  8
0
 62
     250
 10
1727.41
 20
569.246
 30
0.0
 11
1737.02
 21
564.878
 31
0.0
  0
LINE
  8
0
 62
     250
 10
1737.02
 20
564.878
 30
0.0
 11
1746.46
 21
560.169
 31
0.0
  0
LINE
  8
0
 62
     250
 10
1746.46
 20
560.169
 30
0.0
 11
1755.59
 21
555.159
 31
0.0
  0
LINE
  8
0
 62
     250
 10
1755.59
 20
555.159
 30
0.0
 11
1764.28
 21
549.91
 31
0.0
  0
LINE
  8
0
 62
     250
 10
1764.28
 20
549.91
 30
0.0
 11
1770.39
 21
545.885
 31
0.0
  0
LINE
  8
0
 62
     250
 10
1770.39
 20
545.885
 30
0.0
 11
1772.38
 21
544.47
 31
0.0
  0
LINE
  8
0
 62
     250
 10
1772.38
 20
544.47
 30
0.0
 11
1774.29
 21
543.116
 31
0.0
  0
LINE
  8
0
 62
     250
 10
1774.29
 20
543.116
 30
0.0
 11
1779.81
 21
538.762
 31
0.0
  0
LINE
  8
0
 62
     250
 10
1779.81
 20
538.762
 30
0.0
 11
1786.58
 21
532.68
 31
0.0
  0
LINE
  8
0
 62
     250
 10
1786.58
 20
532.68
 30
0.0
 11
1792.74
 21
526.263
 31
0.0
  0
LINE
  8
0
 62
     250
 10
1792.74
 20
526.263
 30
0.0
 11
1798.3
 21
519.536
 31
0.0
  0
LINE
  8
0
 62
     250
 10
1798.3
 20
519.536
 30
0.0
 11
1803.32
 21
512.53
 31
0.0
  0
LINE
  8
0
 62
     250
 10
1803.32
 20
512.53
 30
0.0
 11
1807.81
 21
505.277
 31
0.0
  0
LINE
  8
0
 62
     250
 10
1807.81
 20
505.277
 30
0.0
 11
1811.81
 21
497.805
 31
0.0
  0
LINE
  8
0
 62
     250
 10
1811.81
 20
497.805
 30
0.0
 11
1814.53
 21
492.083
 31
0.0
  0
LINE
  8
0
 62
     250
 10
1814.53
 20
492.083
 30
0.0
 11
1815.37
 21
490.142
 31
0.0
  0
LINE
  8
0
 62
     250
 10
1815.37
 20
490.142
 30
0.0
 11
1816.26
 21
488.068
 31
0.0
  0
LINE
  8
0
 62
     250
 10
1816.26
 20
488.068
 30
0.0
 11
1818.69
 21
481.736
 31
0.0
  0
LINE
  8
0
 62
     250
 10
1818.69
 20
481.736
 30
0.0
 11
1821.92
 21
472.285
 31
0.0
  0
LINE
  8
0
 62
     250
 10
1821.92
 20
472.285
 30
0.0
 11
1824.98
 21
462.224
 31
0.0
  0
LINE
  8
0
 62
     250
 10
1824.98
 20
462.224
 30
0.0
 11
1827.78
 21
451.982
 31
0.0
  0
LINE
  8
0
 62
     250
 10
1827.78
 20
451.982
 30
0.0
 11
1830.22
 21
441.992
 31
0.0
  0
LINE
  8
0
 62
     250
 10
1830.22
 20
441.992
 30
0.0
 11
1832.23
 21
432.682
 31
0.0
  0
LINE
  8
0
 62
     250
 10
1832.23
 20
432.682
 30
0.0
 11
1833.71
 21
424.483
 31
0.0
  0
LINE
  8
0
 62
     250
 10
1833.71
 20
424.483
 30
0.0
 11
1834.42
 21
419.495
 31
0.0
  0
LINE
  8
0
 62
     250
 10
1834.42
 20
419.495
 30
0.0
 11
1834.57
 21
417.823
 31
0.0
  0
LINE
  8
0
 62
     250
 10
1834.57
 20
417.823
 30
0.0
 11
1834.71
 21
416.26
 31
0.0
  0
LINE
  8
0
 62
     250
 10
1834.71
 20
416.26
 30
0.0
 11
1835.01
 21
411.554
 31
0.0
  0
LINE
  8
0
 62
     250
 10
1835.01
 20
411.554
 30
0.0
 11
1835.3
 21
404.308
 31
0.0
  0
LINE
  8
0
 62
     250
 10
1835.3
 20
404.308
 30
0.0
 11
1835.46
 21
396.201
 31
0.0
  0
LINE
  8
0
 62
     250
 10
1835.46
 20
396.201
 30
0.0
 11
1835.49
 21
387.343
 31
0.0
  0
LINE
  8
0
 62
     250
 10
1835.49
 20
387.343
 30
0.0
 11
1835.42
 21
377.853
 31
0.0
  0
LINE
  8
0
 62
     250
 10
1835.42
 20
377.853
 30
0.0
 11
1835.27
 21
367.838
 31
0.0
  0
LINE
  8
0
 62
     250
 10
1835.27
 20
367.838
 30
0.0
 11
1835.05
 21
357.413
 31
0.0
  0
LINE
  8
0
 62
     250
 10
1835.05
 20
357.413
 30
0.0
 11
1834.86
 21
349.377
 31
0.0
  0
LINE
  8
0
 62
     250
 10
1834.86
 20
349.377
 30
0.0
 11
1834.79
 21
346.697
 31
0.0
  0
LINE
  8
0
 62
     250
 10
1834.79
 20
346.697
 30
0.0
 11
1834.72
 21
344.065
 31
0.0
  0
LINE
  8
0
 62
     250
 10
1834.72
 20
344.065
 30
0.0
 11
1834.59
 21
336.163
 31
0.0
  0
LINE
  8
0
 62
     250
 10
1834.59
 20
336.163
 30
0.0
 11
1834.5
 21
326.194
 31
0.0
  0
LINE
  8
0
 62
     250
 10
1834.5
 20
326.194
 30
0.0
 11
1834.48
 21
316.766
 31
0.0
  0
LINE
  8
0
 62
     250
 10
1834.48
 20
316.766
 30
0.0
 11
1834.43
 21
307.847
 31
0.0
  0
LINE
  8
0
 62
     250
 10
1834.43
 20
307.847
 30
0.0
 11
1834.31
 21
299.413
 31
0.0
  0
LINE
  8
0
 62
     250
 10
1834.31
 20
299.413
 30
0.0
 11
1834.05
 21
291.436
 31
0.0
  0
LINE
  8
0
 62
     250
 10
1834.05
 20
291.436
 30
0.0
 11
1833.57
 21
283.887
 31
0.0
  0
LINE
  8
0
 62
     250
 10
1833.57
 20
283.887
 30
0.0
 11
1833.05
 21
278.521
 31
0.0
  0
LINE
  8
0
 62
     250
 10
1833.05
 20
278.521
 30
0.0
 11
1832.82
 21
276.739
 31
0.0
  0
LINE
  8
0
 62
     250
 10
1832.82
 20
276.739
 30
0.0
 11
1832.59
 21
274.941
 31
0.0
  0
LINE
  8
0
 62
     250
 10
1832.59
 20
274.941
 30
0.0
 11
1831.71
 21
269.562
 31
0.0
  0
LINE
  8
0
 62
     250
 10
1831.71
 20
269.562
 30
0.0
 11
1830.23
 21
261.977
 31
0.0
  0
LINE
  8
0
 62
     250
 10
1830.23
 20
261.977
 30
0.0
 11
1828.37
 21
254.033
 31
0.0
  0
LINE
  8
0
 62
     250
 10
1828.37
 20
254.033
 30
0.0
 11
1826.18
 21
245.781
 31
0.0
  0
LINE
  8
0
 62
     250
 10
1826.18
 20
245.781
 30
0.0
 11
1823.67
 21
237.269
 31
0.0
  0
LINE
  8
0
 62
     250
 10
1823.67
 20
237.269
 30
0.0
 11
1820.87
 21
228.55
 31
0.0
  0
LINE
  8
0
 62
     250
 10
1820.87
 20
228.55
 30
0.0
 11
1817.78
 21
219.672
 31
0.0
  0
LINE
  8
0
 62
     250
 10
1817.78
 20
219.672
 30
0.0
 11
1815.3
 21
212.922
 31
0.0
  0
LINE
  8
0
 62
     250
 10
1815.3
 20
212.922
 30
0.0
 11
1814.44
 21
210.684
 31
0.0
  0
LINE
  8
0
 62
     250
 10
1814.44
 20
210.684
 30
0.0
 11
1813.54
 21
208.329
 31
0.0
  0
LINE
  8
0
 62
     250
 10
1813.54
 20
208.329
 30
0.0
 11
1810.59
 21
201.352
 31
0.0
  0
LINE
  8
0
 62
     250
 10
1810.59
 20
201.352
 30
0.0
 11
1806.06
 21
191.509
 31
0.0
  0
LINE
  8
0
 62
     250
 10
1806.06
 20
191.509
 30
0.0
 11
1800.96
 21
181.317
 31
0.0
  0
LINE
  8
0
 62
     250
 10
1800.96
 20
181.317
 30
0.0
 11
1795.43
 21
170.935
 31
0.0
  0
LINE
  8
0
 62
     250
 10
1795.43
 20
170.935
 30
0.0
 11
1789.58
 21
160.521
 31
0.0
  0
LINE
  8
0
 62
     250
 10
1789.58
 20
160.521
 30
0.0
 11
1783.55
 21
150.236
 31
0.0
  0
LINE
  8
0
 62
     250
 10
1783.55
 20
150.236
 30
0.0
 11
1777.45
 21
140.24
 31
0.0
  0
LINE
  8
0
 62
     250
 10
1777.45
 20
140.24
 30
0.0
 11
1772.93
 21
133.066
 31
0.0
  0
LINE
  8
0
 62
     250
 10
1772.93
 20
133.066
 30
0.0
 11
1771.41
 21
130.69
 31
0.0
  0
LINE
  8
0
 62
     250
 10
1771.41
 20
130.69
 30
0.0
 11
1769.86
 21
128.286
 31
0.0
  0
LINE
  8
0
 62
     250
 10
1769.86
 20
128.286
 30
0.0
 11
1764.87
 21
121.292
 31
0.0
  0
LINE
  8
0
 62
     250
 10
1764.87
 20
121.292
 30
0.0
 11
1757.34
 21
111.795
 31
0.0
  0
LINE
  8
0
 62
     250
 10
1757.34
 20
111.795
 30
0.0
 11
1749.07
 21
102.434
 31
0.0
  0
LINE
  8
0
 62
     250
 10
1749.07
 20
102.434
 30
0.0
 11
1740.27
 21
93.4448
 31
0.0
  0
LINE
  8
0
 62
     250
 10
1740.27
 20
93.4448
 30
0.0
 11
1731.18
 21
85.0635
 31
0.0
  0
LINE
  8
0
 62
     250
 10
1731.18
 20
85.0635
 30
0.0
 11
1722.02
 21
77.5229
 31
0.0
  0
LINE
  8
0
 62
     250
 10
1722.02
 20
77.5229
 30
0.0
 11
1713.05
 21
71.06
 31
0.0
  0
LINE
  8
0
 62
     250
 10
1713.05
 20
71.06
 30
0.0
 11
1706.69
 21
67.08
 31
0.0
  0
LINE
  8
0
 62
     250
 10
1706.69
 20
67.08
 30
0.0
 11
1704.48
 21
65.9059
 31
0.0
  0
LINE
  8
0
 62
     250
 10
1704.48
 20
65.9059
 30
0.0
 11
1702.36
 21
64.7746
 31
0.0
  0
LINE
  8
0
 62
     250
 10
1702.36
 20
64.7746
 30
0.0
 11
1695.94
 21
61.4634
 31
0.0
  0
LINE
  8
0
 62
     250
 10
1695.94
 20
61.4634
 30
0.0
 11
1686.89
 21
57.0537
 31
0.0
  0
LINE
  8
0
 62
     250
 10
1686.89
 20
57.0537
 30
0.0
 11
1677.32
 21
52.7995
 31
0.0
  0
LINE
  8
0
 62
     250
 10
1677.32
 20
52.7995
 30
0.0
 11
1667.23
 21
48.8251
 31
0.0
  0
LINE
  8
0
 62
     250
 10
1667.23
 20
48.8251
 30
0.0
 11
1656.61
 21
45.2575
 31
0.0
  0
LINE
  8
0
 62
     250
 10
1656.61
 20
45.2575
 30
0.0
 11
1645.47
 21
42.2162
 31
0.0
  0
LINE
  8
0
 62
     250
 10
1645.47
 20
42.2162
 30
0.0
 11
1633.8
 21
39.8279
 31
0.0
  0
LINE
  8
0
 62
     250
 10
1633.8
 20
39.8279
 30
0.0
 11
1624.66
 21
38.505
 31
0.0
  0
LINE
  8
0
 62
     250
 10
1624.66
 20
38.505
 30
0.0
 11
1621.6
 21
38.2143
 31
0.0
  0
LINE
  8
0
 62
     250
 10
1621.6
 20
38.2143
 30
0.0
 11
1618.57
 21
37.9278
 31
0.0
  0
LINE
  8
0
 62
     250
 10
1618.57
 20
37.9278
 30
0.0
 11
1609.45
 21
37.2953
 31
0.0
  0
LINE
  8
0
 62
     250
 10
1609.45
 20
37.2953
 30
0.0
 11
1597.88
 21
36.8984
 31
0.0
  0
LINE
  8
0
 62
     250
 10
1597.88
 20
36.8984
 30
0.0
 11
1586.8
 21
37.0198
 31
0.0
  0
LINE
  8
0
 62
     250
 10
1586.8
 20
37.0198
 30
0.0
 11
1576.14
 21
37.652
 31
0.0
  0
LINE
  8
0
 62
     250
 10
1576.14
 20
37.652
 30
0.0
 11
1565.8
 21
38.7918
 31
0.0
  0
LINE
  8
0
 62
     250
 10
1565.8
 20
38.7918
 30
0.0
 11
1555.7
 21
40.4301
 31
0.0
  0
LINE
  8
0
 62
     250
 10
1555.7
 20
40.4301
 30
0.0
 11
1545.75
 21
42.5633
 31
0.0
  0
LINE
  8
0
 62
     250
 10
1545.75
 20
42.5633
 30
0.0
 11
1538.33
 21
44.4722
 31
0.0
  0
LINE
  8
0
 62
     250
 10
1538.33
 20
44.4722
 30
0.0
 11
1535.88
 21
45.1831
 31
0.0
  0
LINE
  8
0
 62
     250
 10
1535.88
 20
45.1831
 30
0.0
 11
1533.34
 21
45.9204
 31
0.0
  0
LINE
  8
0
 62
     250
 10
1533.34
 20
45.9204
 30
0.0
 11
1525.85
 21
48.5331
 31
0.0
  0
LINE
  8
0
 62
     250
 10
1525.85
 20
48.5331
 30
0.0
 11
1515.6
 21
52.7939
 31
0.0
  0
LINE
  8
0
 62
     250
 10
1515.6
 20
52.7939
 30
0.0
 11
1505.29
 21
57.8803
 31
0.0
  0
LINE
  8
0
 62
     250
 10
1505.29
 20
57.8803
 30
0.0
 11
1495.06
 21
63.7039
 31
0.0
  0
LINE
  8
0
 62
     250
 10
1495.06
 20
63.7039
 30
0.0
 11
1485.08
 21
70.1809
 31
0.0
  0
LINE
  8
0
 62
     250
 10
1485.08
 20
70.1809
 30
0.0
 11
1475.5
 21
77.2199
 31
0.0
  0
LINE
  8
0
 62
     250
 10
1475.5
 20
77.2199
 30
0.0
 11
1466.47
 21
84.7369
 31
0.0
  0
LINE
  8
0
 62
     250
 10
1466.47
 20
84.7369
 30
0.0
 11
1460.16
 21
90.5965
 31
0.0
  0
LINE
  8
0
 62
     250
 10
1460.16
 20
90.5965
 30
0.0
 11
1458.16
 21
92.6426
 31
0.0
  0
LINE
  8
0
 62
     250
 10
1458.16
 20
92.6426
 30
0.0
 11
1457.15
 21
93.6706
 31
0.0
  0
LINE
  8
0
 62
     250
 10
1457.15
 20
93.6706
 30
0.0
 11
1454.15
 21
96.7768
 31
0.0
  0
LINE
  8
0
 62
     250
 10
1454.15
 20
96.7768
 30
0.0
 11
1450.06
 21
101.079
 31
0.0
  0
LINE
  8
0
 62
     250
 10
1450.06
 20
101.079
 30
0.0
 11
1445.93
 21
105.507
 31
0.0
  0
LINE
  8
0
 62
     250
 10
1445.93
 20
105.507
 30
0.0
 11
1441.8
 21
110.02
 31
0.0
  0
LINE
  8
0
 62
     250
 10
1441.8
 20
110.02
 30
0.0
 11
1437.69
 21
114.578
 31
0.0
  0
LINE
  8
0
 62
     250
 10
1437.69
 20
114.578
 30
0.0
 11
1433.64
 21
119.14
 31
0.0
  0
LINE
  8
0
 62
     250
 10
1433.64
 20
119.14
 30
0.0
 11
1429.68
 21
123.665
 31
0.0
  0
LINE
  8
0
 62
     250
 10
1429.68
 20
123.665
 30
0.0
 11
1425.86
 21
128.113
 31
0.0
  0
LINE
  8
0
 62
     250
 10
1425.86
 20
128.113
 30
0.0
 11
1422.21
 21
132.443
 31
0.0
  0
LINE
  8
0
 62
     250
 10
1422.21
 20
132.443
 30
0.0
 11
1418.76
 21
136.613
 31
0.0
  0
LINE
  8
0
 62
     250
 10
1418.76
 20
136.613
 30
0.0
 11
1415.55
 21
140.583
 31
0.0
  0
LINE
  8
0
 62
     250
 10
1415.55
 20
140.583
 30
0.0
 11
1412.61
 21
144.314
 31
0.0
  0
LINE
  8
0
 62
     250
 10
1412.61
 20
144.314
 30
0.0
 11
1409.98
 21
147.762
 31
0.0
  0
LINE
  8
0
 62
     250
 10
1409.98
 20
147.762
 30
0.0
 11
1407.7
 21
150.887
 31
0.0
  0
LINE
  8
0
 62
     250
 10
1407.7
 20
150.887
 30
0.0
 11
1405.79
 21
153.65
 31
0.0
  0
LINE
  8
0
 62
     250
 10
1405.79
 20
153.65
 30
0.0
 11
1404.66
 21
155.408
 31
0.0
  0
LINE
  8
0
 62
     250
 10
1404.66
 20
155.408
 30
0.0
 11
1404.3
 21
156.008
 31
0.0
  0
LINE
  8
0
 62
     250
 10
1404.3
 20
156.008
 30
0.0
 11
1403.61
 21
157.175
 31
0.0
  0
LINE
  8
0
 62
     250
 10
1403.61
 20
157.175
 30
0.0
 11
1401.8
 21
160.836
 31
0.0
  0
LINE
  8
0
 62
     250
 10
1401.8
 20
160.836
 30
0.0
 11
1399.42
 21
166.526
 31
0.0
  0
LINE
  8
0
 62
     250
 10
1399.42
 20
166.526
 30
0.0
 11
1397.2
 21
172.743
 31
0.0
  0
LINE
  8
0
 62
     250
 10
1397.2
 20
172.743
 30
0.0
 11
1395.19
 21
179.149
 31
0.0
  0
LINE
  8
0
 62
     250
 10
1395.19
 20
179.149
 30
0.0
 11
1393.44
 21
185.414
 31
0.0
  0
LINE
  8
0
 62
     250
 10
1393.44
 20
185.414
 30
0.0
 11
1391.99
 21
191.198
 31
0.0
  0
LINE
  8
0
 62
     250
 10
1391.99
 20
191.198
 30
0.0
 11
1390.89
 21
196.172
 31
0.0
  0
LINE
  8
0
 62
     250
 10
1390.89
 20
196.172
 30
0.0
 11
1390.34
 21
199.035
 31
0.0
  0
LINE
  8
0
 62
     250
 10
1390.34
 20
199.035
 30
0.0
 11
1390.18
 21
199.995
 31
0.0
  0
LINE
  8
0
 62
     250
 10
1390.18
 20
199.995
 30
0.0
 11
1390.06
 21
200.822
 31
0.0
  0
LINE
  8
0
 62
     250
 10
1390.06
 20
200.822
 30
0.0
 11
1389.62
 21
203.295
 31
0.0
  0
LINE
  8
0
 62
     250
 10
1389.62
 20
203.295
 30
0.0
 11
1388.92
 21
206.827
 31
0.0
  0
LINE
  8
0
 62
     250
 10
1388.92
 20
206.827
 30
0.0
 11
1388.14
 21
210.451
 31
0.0
  0
LINE
  8
0
 62
     250
 10
1388.14
 20
210.451
 30
0.0
 11
1387.32
 21
214.03
 31
0.0
  0
LINE
  8
0
 62
     250
 10
1387.32
 20
214.03
 30
0.0
 11
1386.52
 21
217.428
 31
0.0
  0
LINE
  8
0
 62
     250
 10
1386.52
 20
217.428
 30
0.0
 11
1385.76
 21
220.506
 31
0.0
  0
LINE
  8
0
 62
     250
 10
1385.76
 20
220.506
 30
0.0
 11
1385.11
 21
223.124
 31
0.0
  0
LINE
  8
0
 62
     250
 10
1385.11
 20
223.124
 30
0.0
 11
1384.72
 21
224.641
 31
0.0
  0
LINE
  8
0
 62
     250
 10
1384.72
 20
224.641
 30
0.0
 11
1384.6
 21
225.145
 31
0.0
  0
LINE
  8
0
 62
     250
 10
1384.6
 20
225.145
 30
0.0
 11
1384.44
 21
225.765
 31
0.0
  0
LINE
  8
0
 62
     250
 10
1384.44
 20
225.765
 30
0.0
 11
1383.97
 21
227.626
 31
0.0
  0
LINE
  8
0
 62
     250
 10
1383.97
 20
227.626
 30
0.0
 11
1383.02
 21
231.512
 31
0.0
  0
LINE
  8
0
 62
     250
 10
1383.02
 20
231.512
 30
0.0
 11
1381.83
 21
236.504
 31
0.0
  0
LINE
  8
0
 62
     250
 10
1381.83
 20
236.504
 30
0.0
 11
1380.52
 21
242.303
 31
0.0
  0
LINE
  8
0
 62
     250
 10
1380.52
 20
242.303
 30
0.0
 11
1379.19
 21
248.612
 31
0.0
  0
LINE
  8
0
 62
     250
 10
1379.19
 20
248.612
 30
0.0
 11
1377.95
 21
255.129
 31
0.0
  0
LINE
  8
0
 62
     250
 10
1377.95
 20
255.129
 30
0.0
 11
1376.89
 21
261.556
 31
0.0
  0
LINE
  8
0
 62
     250
 10
1376.89
 20
261.556
 30
0.0
 11
1376.28
 21
266.081
 31
0.0
  0
LINE
  8
0
 62
     250
 10
1376.28
 20
266.081
 30
0.0
 11
1376.13
 21
267.594
 31
0.0
  0
LINE
  8
0
 62
     250
 10
1376.13
 20
267.594
 30
0.0
 11
1376.05
 21
268.399
 31
0.0
  0
LINE
  8
0
 62
     250
 10
1376.05
 20
268.399
 30
0.0
 11
1375.84
 21
270.815
 31
0.0
  0
LINE
  8
0
 62
     250
 10
1375.84
 20
270.815
 30
0.0
 11
1375.53
 21
274.68
 31
0.0
  0
LINE
  8
0
 62
     250
 10
1375.53
 20
274.68
 30
0.0
 11
1375.23
 21
279.116
 31
0.0
  0
LINE
  8
0
 62
     250
 10
1375.23
 20
279.116
 30
0.0
 11
1374.92
 21
284.047
 31
0.0
  0
LINE
  8
0
 62
     250
 10
1374.92
 20
284.047
 30
0.0
 11
1374.62
 21
289.398
 31
0.0
  0
LINE
  8
0
 62
     250
 10
1374.62
 20
289.398
 30
0.0
 11
1374.33
 21
295.094
 31
0.0
  0
LINE
  8
0
 62
     250
 10
1374.33
 20
295.094
 30
0.0
 11
1374.06
 21
301.063
 31
0.0
  0
LINE
  8
0
 62
     250
 10
1374.06
 20
301.063
 30
0.0
 11
1373.8
 21
307.228
 31
0.0
  0
LINE
  8
0
 62
     250
 10
1373.8
 20
307.228
 30
0.0
 11
1373.58
 21
313.513
 31
0.0
  0
LINE
  8
0
 62
     250
 10
1373.58
 20
313.513
 30
0.0
 11
1373.38
 21
319.845
 31
0.0
  0
LINE
  8
0
 62
     250
 10
1373.38
 20
319.845
 30
0.0
 11
1373.22
 21
326.15
 31
0.0
  0
LINE
  8
0
 62
     250
 10
1373.22
 20
326.15
 30
0.0
 11
1373.1
 21
332.351
 31
0.0
  0
LINE
  8
0
 62
     250
 10
1373.1
 20
332.351
 30
0.0
 11
1373.03
 21
338.375
 31
0.0
  0
LINE
  8
0
 62
     250
 10
1373.03
 20
338.375
 30
0.0
 11
1373.01
 21
344.146
 31
0.0
  0
LINE
  8
0
 62
     250
 10
1373.01
 20
344.146
 30
0.0
 11
1373.04
 21
349.589
 31
0.0
  0
LINE
  8
0
 62
     250
 10
1373.04
 20
349.589
 30
0.0
 11
1373.1
 21
353.37
 31
0.0
  0
LINE
  8
0
 62
     250
 10
1373.1
 20
353.37
 30
0.0
 11
1373.14
 21
354.63
 31
0.0
  0
LINE
  8
0
 62
     250
 10
1373.14
 20
354.63
 30
0.0
 11
1373.17
 21
355.907
 31
0.0
  0
LINE
  8
0
 62
     250
 10
1373.17
 20
355.907
 30
0.0
 11
1373.3
 21
359.738
 31
0.0
  0
LINE
  8
0
 62
     250
 10
1373.3
 20
359.738
 30
0.0
 11
1373.55
 21
365.375
 31
0.0
  0
LINE
  8
0
 62
     250
 10
1373.55
 20
365.375
 30
0.0
 11
1373.88
 21
371.45
 31
0.0
  0
LINE
  8
0
 62
     250
 10
1373.88
 20
371.45
 30
0.0
 11
1374.26
 21
377.864
 31
0.0
  0
LINE
  8
0
 62
     250
 10
1374.26
 20
377.864
 30
0.0
 11
1374.7
 21
384.528
 31
0.0
  0
LINE
  8
0
 62
     250
 10
1374.7
 20
384.528
 30
0.0
 11
1375.2
 21
391.354
 31
0.0
  0
LINE
  8
0
 62
     250
 10
1375.2
 20
391.354
 30
0.0
 11
1375.74
 21
398.244
 31
0.0
  0
LINE
  8
0
 62
     250
 10
1375.74
 20
398.244
 30
0.0
 11
1376.31
 21
405.109
 31
0.0
  0
LINE
  8
0
 62
     250
 10
1376.31
 20
405.109
 30
0.0
 11
1376.91
 21
411.854
 31
0.0
  0
LINE
  8
0
 62
     250
 10
1376.91
 20
411.854
 30
0.0
 11
1377.53
 21
418.394
 31
0.0
  0
LINE
  8
0
 62
     250
 10
1377.53
 20
418.394
 30
0.0
 11
1378.17
 21
424.628
 31
0.0
  0
LINE
  8
0
 62
     250
 10
1378.17
 20
424.628
 30
0.0
 11
1378.81
 21
430.47
 31
0.0
  0
LINE
  8
0
 62
     250
 10
1378.81
 20
430.47
 30
0.0
 11
1379.45
 21
435.822
 31
0.0
  0
LINE
  8
0
 62
     250
 10
1379.45
 20
435.822
 30
0.0
 11
1380.07
 21
440.595
 31
0.0
  0
LINE
  8
0
 62
     250
 10
1380.07
 20
440.595
 30
0.0
 11
1380.68
 21
444.701
 31
0.0
  0
LINE
  8
0
 62
     250
 10
1380.68
 20
444.701
 30
0.0
 11
1381.11
 21
447.209
 31
0.0
  0
LINE
  8
0
 62
     250
 10
1381.11
 20
447.209
 30
0.0
 11
1381.27
 21
448.042
 31
0.0
  0
LINE
  8
0
 62
     250
 10
1381.27
 20
448.042
 30
0.0
 11
1381.79
 21
450.719
 31
0.0
  0
LINE
  8
0
 62
     250
 10
1381.79
 20
450.719
 30
0.0
 11
1383.4
 21
458.749
 31
0.0
  0
LINE
  8
0
 62
     250
 10
1383.4
 20
458.749
 30
0.0
 11
1385.28
 21
467.575
 31
0.0
  0
LINE
  8
0
 62
     250
 10
1385.28
 20
467.575
 30
0.0
 11
1386.96
 21
474.712
 31
0.0
  0
LINE
  8
0
 62
     250
 10
1386.96
 20
474.712
 30
0.0
 11
1388.08
 21
478.956
 31
0.0
  0
LINE
  8
0
 62
     250
 10
1388.08
 20
478.956
 30
0.0
 11
1388.5
 21
480.356
 31
0.0
  0
LINE
  8
0
 62
     250
 10
1388.5
 20
480.356
 30
0.0
 11
1388.92
 21
481.76
 31
0.0
  0
LINE
  8
0
 62
     250
 10
1388.92
 20
481.76
 30
0.0
 11
1390.15
 21
485.983
 31
0.0
  0
LINE
  8
0
 62
     250
 10
1390.15
 20
485.983
 30
0.0
 11
1391.96
 21
492.404
 31
0.0
  0
LINE
  8
0
 62
     250
 10
1391.96
 20
492.404
 30
0.0
 11
1393.68
 21
498.796
 31
0.0
  0
LINE
  8
0
 62
     250
 10
1393.68
 20
498.796
 30
0.0
 11
1394.76
 21
502.959
 31
0.0
  0
LINE
  8
0
 62
     250
 10
1394.76
 20
502.959
 30
0.0
 11
1395.1
 21
504.352
 31
0.0
  0
LINE
  8
0
 62
     250
 10
1412.65
 20
543.945
 30
0.0
 11
1412.65
 21
543.945
 31
0.0
  0
LINE
  8
0
 62
     250
 10
1412.65
 20
543.945
 30
0.0
 11
1413.1
 21
543.359
 31
0.0
  0
LINE
  8
0
 62
     250
 10
1413.1
 20
543.359
 30
0.0
 11
1414.4
 21
541.697
 31
0.0
  0
LINE
  8
0
 62
     250
 10
1414.4
 20
541.697
 30
0.0
 11
1416.41
 21
539.115
 31
0.0
  0
LINE
  8
0
 62
     250
 10
1416.41
 20
539.115
 30
0.0
 11
1418.99
 21
535.757
 31
0.0
  0
LINE
  8
0
 62
     250
 10
1418.99
 20
535.757
 30
0.0
 11
1422.02
 21
531.774
 31
0.0
  0
LINE
  8
0
 62
     250
 10
1422.02
 20
531.774
 30
0.0
 11
1425.36
 21
527.322
 31
0.0
  0
LINE
  8
0
 62
     250
 10
1425.36
 20
527.322
 30
0.0
 11
1428.9
 21
522.541
 31
0.0
  0
LINE
  8
0
 62
     250
 10
1428.9
 20
522.541
 30
0.0
 11
1431.6
 21
518.83
 31
0.0
  0
LINE
  8
0
 62
     250
 10
1431.6
 20
518.83
 30
0.0
 11
1432.5
 21
517.589
 31
0.0
  0
LINE
  8
0
 62
     250
 10
1432.5
 20
517.589
 30
0.0
 11
1433.43
 21
516.287
 31
0.0
  0
LINE
  8
0
 62
     250
 10
1433.43
 20
516.287
 30
0.0
 11
1436.14
 21
512.322
 31
0.0
  0
LINE
  8
0
 62
     250
 10
1436.14
 20
512.322
 30
0.0
 11
1439.86
 21
506.603
 31
0.0
  0
LINE
  8
0
 62
     250
 10
1439.86
 20
506.603
 30
0.0
 11
1443.58
 21
500.57
 31
0.0
  0
LINE
  8
0
 62
     250
 10
1443.58
 20
500.57
 30
0.0
 11
1447.23
 21
494.362
 31
0.0
  0
LINE
  8
0
 62
     250
 10
1447.23
 20
494.362
 30
0.0
 11
1450.74
 21
488.117
 31
0.0
  0
LINE
  8
0
 62
     250
 10
1450.74
 20
488.117
 30
0.0
 11
1454.03
 21
481.979
 31
0.0
  0
LINE
  8
0
 62
     250
 10
1454.03
 20
481.979
 30
0.0
 11
1457.03
 21
476.084
 31
0.0
  0
LINE
  8
0
 62
     250
 10
1457.03
 20
476.084
 30
0.0
 11
1459.03
 21
471.96
 31
0.0
  0
LINE
  8
0
 62
     250
 10
1459.03
 20
471.96
 30
0.0
 11
1459.67
 21
470.574
 31
0.0
  0
LINE
  8
0
 62
     250
 10
1459.67
 20
470.574
 30
0.0
 11
1460.97
 21
467.748
 31
0.0
  0
LINE
  8
0
 62
     250
 10
1460.97
 20
467.748
 30
0.0
 11
1464.44
 21
459.07
 31
0.0
  0
LINE
  8
0
 62
     250
 10
1464.44
 20
459.07
 30
0.0
 11
1469.01
 21
445.707
 31
0.0
  0
LINE
  8
0
 62
     250
 10
1469.01
 20
445.707
 30
0.0
 11
1473.32
 21
430.562
 31
0.0
  0
LINE
  8
0
 62
     250
 10
1473.32
 20
430.562
 30
0.0
 11
1476.41
 21
417.943
 31
0.0
  0
LINE
  8
0
 62
     250
 10
1476.41
 20
417.943
 30
0.0
 11
1477.33
 21
413.713
 31
0.0
  0
LINE
  8
0
 62
     250
 10
1477.33
 20
413.713
 30
0.0
 11
1477.81
 21
411.522
 31
0.0
  0
LINE
  8
0
 62
     250
 10
1477.81
 20
411.522
 30
0.0
 11
1479.03
 21
404.894
 31
0.0
  0
LINE
  8
0
 62
     250
 10
1479.03
 20
404.894
 30
0.0
 11
1480.32
 21
396.162
 31
0.0
  0
LINE
  8
0
 62
     250
 10
1480.32
 20
396.162
 30
0.0
 11
1481.25
 21
387.615
 31
0.0
  0
LINE
  8
0
 62
     250
 10
1481.25
 20
387.615
 30
0.0
 11
1481.87
 21
379.331
 31
0.0
  0
LINE
  8
0
 62
     250
 10
1481.87
 20
379.331
 30
0.0
 11
1482.23
 21
371.401
 31
0.0
  0
LINE
  8
0
 62
     250
 10
1482.23
 20
371.401
 30
0.0
 11
1482.38
 21
363.911
 31
0.0
  0
LINE
  8
0
 62
     250
 10
1482.38
 20
363.911
 30
0.0
 11
1482.37
 21
356.955
 31
0.0
  0
LINE
  8
0
 62
     250
 10
1482.37
 20
356.955
 30
0.0
 11
1482.29
 21
352.197
 31
0.0
  0
LINE
  8
0
 62
     250
 10
1482.29
 20
352.197
 30
0.0
 11
1482.25
 21
350.611
 31
0.0
  0
LINE
  8
0
 62
     250
 10
1482.25
 20
350.611
 30
0.0
 11
1482.21
 21
348.97
 31
0.0
  0
LINE
  8
0
 62
     250
 10
1482.21
 20
348.97
 30
0.0
 11
1482.01
 21
344.048
 31
0.0
  0
LINE
  8
0
 62
     250
 10
1482.01
 20
344.048
 30
0.0
 11
1481.61
 21
336.571
 31
0.0
  0
LINE
  8
0
 62
     250
 10
1481.61
 20
336.571
 30
0.0
 11
1481.05
 21
328.5
 31
0.0
  0
LINE
  8
0
 62
     250
 10
1481.05
 20
328.5
 30
0.0
 11
1480.36
 21
320.149
 31
0.0
  0
LINE
  8
0
 62
     250
 10
1480.36
 20
320.149
 30
0.0
 11
1479.53
 21
311.838
 31
0.0
  0
LINE
  8
0
 62
     250
 10
1479.53
 20
311.838
 30
0.0
 11
1478.57
 21
303.88
 31
0.0
  0
LINE
  8
0
 62
     250
 10
1478.57
 20
303.88
 30
0.0
 11
1477.5
 21
296.594
 31
0.0
  0
LINE
  8
0
 62
     250
 10
1477.5
 20
296.594
 30
0.0
 11
1476.66
 21
291.862
 31
0.0
  0
LINE
  8
0
 62
     250
 10
1476.66
 20
291.862
 30
0.0
 11
1476.33
 21
290.296
 31
0.0
  0
LINE
  8
0
 62
     250
 10
1476.33
 20
290.296
 30
0.0
 11
1476.01
 21
288.827
 31
0.0
  0
LINE
  8
0
 62
     250
 10
1476.01
 20
288.827
 30
0.0
 11
1474.96
 21
284.441
 31
0.0
  0
LINE
  8
0
 62
     250
 10
1474.96
 20
284.441
 30
0.0
 11
1473.36
 21
278.351
 31
0.0
  0
LINE
  8
0
 62
     250
 10
1473.36
 20
278.351
 30
0.0
 11
1471.58
 21
272.151
 31
0.0
  0
LINE
  8
0
 62
     250
 10
1471.58
 20
272.151
 30
0.0
 11
1469.69
 21
265.966
 31
0.0
  0
LINE
  8
0
 62
     250
 10
1469.69
 20
265.966
 30
0.0
 11
1467.72
 21
259.915
 31
0.0
  0
LINE
  8
0
 62
     250
 10
1467.72
 20
259.915
 30
0.0
 11
1465.76
 21
254.123
 31
0.0
  0
LINE
  8
0
 62
     250
 10
1465.76
 20
254.123
 30
0.0
 11
1463.86
 21
248.715
 31
0.0
  0
LINE
  8
0
 62
     250
 10
1463.86
 20
248.715
 30
0.0
 11
1462.52
 21
245.036
 31
0.0
  0
LINE
  8
0
 62
     250
 10
1462.52
 20
245.036
 30
0.0
 11
1462.06
 21
243.812
 31
0.0
  0
LINE
  8
0
 62
     250
 10
1462.06
 20
243.812
 30
0.0
 11
1461.61
 21
242.602
 31
0.0
  0
LINE
  8
0
 62
     250
 10
1461.61
 20
242.602
 30
0.0
 11
1460.13
 21
239.018
 31
0.0
  0
LINE
  8
0
 62
     250
 10
1460.13
 20
239.018
 30
0.0
 11
1457.83
 21
233.951
 31
0.0
  0
LINE
  8
0
 62
     250
 10
1457.83
 20
233.951
 30
0.0
 11
1455.27
 21
228.76
 31
0.0
  0
LINE
  8
0
 62
     250
 10
1455.27
 20
228.76
 30
0.0
 11
1452.56
 21
223.595
 31
0.0
  0
LINE
  8
0
 62
     250
 10
1452.56
 20
223.595
 30
0.0
 11
1449.8
 21
218.605
 31
0.0
  0
LINE
  8
0
 62
     250
 10
1449.8
 20
218.605
 30
0.0
 11
1447.1
 21
213.94
 31
0.0
  0
LINE
  8
0
 62
     250
 10
1447.1
 20
213.94
 30
0.0
 11
1444.56
 21
209.747
 31
0.0
  0
LINE
  8
0
 62
     250
 10
1444.56
 20
209.747
 30
0.0
 11
1442.88
 21
207.061
 31
0.0
  0
LINE
  8
0
 62
     250
 10
1442.88
 20
207.061
 30
0.0
 11
1442.3
 21
206.177
 31
0.0
  0
LINE
  8
0
 62
     250
 10
1421.41
 20
546.4
 30
0.0
 11
1421.41
 21
546.4
 31
0.0
  0
LINE
  8
0
 62
     250
 10
1421.41
 20
546.4
 30
0.0
 11
1421.41
 21
546.185
 31
0.0
  0
LINE
  8
0
 62
     250
 10
1421.41
 20
546.185
 30
0.0
 11
1421.46
 21
545.543
 31
0.0
  0
LINE
  8
0
 62
     250
 10
1421.46
 20
545.543
 30
0.0
 11
1421.65
 21
544.474
 31
0.0
  0
LINE
  8
0
 62
     250
 10
1421.65
 20
544.474
 30
0.0
 11
1422.06
 21
542.992
 31
0.0
  0
LINE
  8
0
 62
     250
 10
1422.06
 20
542.992
 30
0.0
 11
1422.77
 21
541.098
 31
0.0
  0
LINE
  8
0
 62
     250
 10
1422.77
 20
541.098
 30
0.0
 11
1423.86
 21
538.798
 31
0.0
  0
LINE
  8
0
 62
     250
 10
1423.86
 20
538.798
 30
0.0
 11
1425.42
 21
536.095
 31
0.0
  0
LINE
  8
0
 62
     250
 10
1425.42
 20
536.095
 30
0.0
 11
1426.98
 21
533.753
 31
0.0
  0
LINE
  8
0
 62
     250
 10
1426.98
 20
533.753
 30
0.0
 11
1427.53
 21
532.998
 31
0.0
  0
LINE
  8
0
 62
     250
 10
1427.53
 20
532.998
 30
0.0
 11
1428.2
 21
532.095
 31
0.0
  0
LINE
  8
0
 62
     250
 10
1428.2
 20
532.095
 30
0.0
 11
1430.33
 21
529.488
 31
0.0
  0
LINE
  8
0
 62
     250
 10
1430.33
 20
529.488
 30
0.0
 11
1433.79
 21
525.621
 31
0.0
  0
LINE
  8
0
 62
     250
 10
1433.79
 20
525.621
 30
0.0
 11
1437.7
 21
521.508
 31
0.0
  0
LINE
  8
0
 62
     250
 10
1437.7
 20
521.508
 30
0.0
 11
1441.87
 21
517.275
 31
0.0
  0
LINE
  8
0
 62
     250
 10
1441.87
 20
517.275
 30
0.0
 11
1446.1
 21
513.027
 31
0.0
  0
LINE
  8
0
 62
     250
 10
1446.1
 20
513.027
 30
0.0
 11
1450.2
 21
508.885
 31
0.0
  0
LINE
  8
0
 62
     250
 10
1450.2
 20
508.885
 30
0.0
 11
1453.98
 21
504.963
 31
0.0
  0
LINE
  8
0
 62
     250
 10
1453.98
 20
504.963
 30
0.0
 11
1456.44
 21
502.296
 31
0.0
  0
LINE
  8
0
 62
     250
 10
1456.44
 20
502.296
 30
0.0
 11
1457.24
 21
501.382
 31
0.0
  0
LINE
  8
0
 62
     250
 10
1457.24
 20
501.382
 30
0.0
 11
1458.08
 21
500.415
 31
0.0
  0
LINE
  8
0
 62
     250
 10
1458.08
 20
500.415
 30
0.0
 11
1460.45
 21
497.378
 31
0.0
  0
LINE
  8
0
 62
     250
 10
1460.45
 20
497.378
 30
0.0
 11
1464.15
 21
492.27
 31
0.0
  0
LINE
  8
0
 62
     250
 10
1464.15
 20
492.27
 30
0.0
 11
1468.18
 21
486.279
 31
0.0
  0
LINE
  8
0
 62
     250
 10
1468.18
 20
486.279
 30
0.0
 11
1472.43
 21
479.626
 31
0.0
  0
LINE
  8
0
 62
     250
 10
1472.43
 20
479.626
 30
0.0
 11
1476.75
 21
472.532
 31
0.0
  0
LINE
  8
0
 62
     250
 10
1476.75
 20
472.532
 30
0.0
 11
1481
 21
465.219
 31
0.0
  0
LINE
  8
0
 62
     250
 10
1481
 20
465.219
 30
0.0
 11
1485.05
 21
457.913
 31
0.0
  0
LINE
  8
0
 62
     250
 10
1485.05
 20
457.913
 30
0.0
 11
1487.85
 21
452.61
 31
0.0
  0
LINE
  8
0
 62
     250
 10
1487.85
 20
452.61
 30
0.0
 11
1488.76
 21
450.825
 31
0.0
  0
LINE
  8
0
 62
     250
 10
1488.76
 20
450.825
 30
0.0
 11
1489.63
 21
449.104
 31
0.0
  0
LINE
  8
0
 62
     250
 10
1489.63
 20
449.104
 30
0.0
 11
1492.07
 21
443.847
 31
0.0
  0
LINE
  8
0
 62
     250
 10
1492.07
 20
443.847
 30
0.0
 11
1495.04
 21
436.661
 31
0.0
  0
LINE
  8
0
 62
     250
 10
1495.04
 20
436.661
 30
0.0
 11
1497.7
 21
429.196
 31
0.0
  0
LINE
  8
0
 62
     250
 10
1497.7
 20
429.196
 30
0.0
 11
1500.1
 21
421.382
 31
0.0
  0
LINE
  8
0
 62
     250
 10
1500.1
 20
421.382
 30
0.0
 11
1502.27
 21
413.149
 31
0.0
  0
LINE
  8
0
 62
     250
 10
1502.27
 20
413.149
 30
0.0
 11
1504.26
 21
404.424
 31
0.0
  0
LINE
  8
0
 62
     250
 10
1504.26
 20
404.424
 30
0.0
 11
1506.11
 21
395.139
 31
0.0
  0
LINE
  8
0
 62
     250
 10
1506.11
 20
395.139
 30
0.0
 11
1507.44
 21
387.706
 31
0.0
  0
LINE
  8
0
 62
     250
 10
1507.44
 20
387.706
 30
0.0
 11
1507.86
 21
385.223
 31
0.0
  0
LINE
  8
0
 62
     250
 10
1507.86
 20
385.223
 30
0.0
 11
1508.28
 21
382.69
 31
0.0
  0
LINE
  8
0
 62
     250
 10
1508.28
 20
382.69
 30
0.0
 11
1509.22
 21
375.02
 31
0.0
  0
LINE
  8
0
 62
     250
 10
1509.22
 20
375.02
 30
0.0
 11
1509.96
 21
365.058
 31
0.0
  0
LINE
  8
0
 62
     250
 10
1509.96
 20
365.058
 30
0.0
 11
1510.21
 21
355.54
 31
0.0
  0
LINE
  8
0
 62
     250
 10
1510.21
 20
355.54
 30
0.0
 11
1510.07
 21
346.666
 31
0.0
  0
LINE
  8
0
 62
     250
 10
1510.07
 20
346.666
 30
0.0
 11
1509.66
 21
338.641
 31
0.0
  0
LINE
  8
0
 62
     250
 10
1509.66
 20
338.641
 30
0.0
 11
1509.11
 21
331.669
 31
0.0
  0
LINE
  8
0
 62
     250
 10
1509.11
 20
331.669
 30
0.0
 11
1508.53
 21
325.951
 31
0.0
  0
LINE
  8
0
 62
     250
 10
1508.53
 20
325.951
 30
0.0
 11
1508.17
 21
322.757
 31
0.0
  0
LINE
  8
0
 62
     250
 10
1508.17
 20
322.757
 30
0.0
 11
1508.05
 21
321.692
 31
0.0
  0
LINE
  8
0
 62
     250
 10
1508.05
 20
321.692
 30
0.0
 11
1507.93
 21
320.653
 31
0.0
  0
LINE
  8
0
 62
     250
 10
1507.93
 20
320.653
 30
0.0
 11
1507.42
 21
317.552
 31
0.0
  0
LINE
  8
0
 62
     250
 10
1507.42
 20
317.552
 30
0.0
 11
1506.38
 21
312.252
 31
0.0
  0
LINE
  8
0
 62
     250
 10
1506.38
 20
312.252
 30
0.0
 11
1504.99
 21
306.09
 31
0.0
  0
LINE
  8
0
 62
     250
 10
1504.99
 20
306.09
 30
0.0
 11
1503.3
 21
299.359
 31
0.0
  0
LINE
  8
0
 62
     250
 10
1503.3
 20
299.359
 30
0.0
 11
1501.38
 21
292.358
 31
0.0
  0
LINE
  8
0
 62
     250
 10
1501.38
 20
292.358
 30
0.0
 11
1499.29
 21
285.381
 31
0.0
  0
LINE
  8
0
 62
     250
 10
1499.29
 20
285.381
 30
0.0
 11
1497.09
 21
278.722
 31
0.0
  0
LINE
  8
0
 62
     250
 10
1497.09
 20
278.722
 30
0.0
 11
1495.43
 21
274.176
 31
0.0
  0
LINE
  8
0
 62
     250
 10
1495.43
 20
274.176
 30
0.0
 11
1494.83
 21
272.679
 31
0.0
  0
LINE
  8
0
 62
     250
 10
1494.83
 20
272.679
 30
0.0
 11
1494.23
 21
271.187
 31
0.0
  0
LINE
  8
0
 62
     250
 10
1494.23
 20
271.187
 30
0.0
 11
1492.29
 21
266.763
 31
0.0
  0
LINE
  8
0
 62
     250
 10
1492.29
 20
266.763
 30
0.0
 11
1489.28
 21
260.434
 31
0.0
  0
LINE
  8
0
 62
     250
 10
1489.28
 20
260.434
 30
0.0
 11
1485.94
 21
253.913
 31
0.0
  0
LINE
  8
0
 62
     250
 10
1485.94
 20
253.913
 30
0.0
 11
1482.39
 21
247.424
 31
0.0
  0
LINE
  8
0
 62
     250
 10
1482.39
 20
247.424
 30
0.0
 11
1478.76
 21
241.189
 31
0.0
  0
LINE
  8
0
 62
     250
 10
1478.76
 20
241.189
 30
0.0
 11
1475.19
 21
235.429
 31
0.0
  0
LINE
  8
0
 62
     250
 10
1475.19
 20
235.429
 30
0.0
 11
1471.8
 21
230.368
 31
0.0
  0
LINE
  8
0
 62
     250
 10
1471.8
 20
230.368
 30
0.0
 11
1469.53
 21
227.236
 31
0.0
  0
LINE
  8
0
 62
     250
 10
1469.53
 20
227.236
 30
0.0
 11
1468.73
 21
226.227
 31
0.0
  0
LINE
  8
0
 62
     250
 10
1468.73
 20
226.227
 30
0.0
 11
1468.34
 21
225.738
 31
0.0
  0
LINE
  8
0
 62
     250
 10
1468.34
 20
225.738
 30
0.0
 11
1467.15
 21
224.277
 31
0.0
  0
LINE
  8
0
 62
     250
 10
1467.15
 20
224.277
 30
0.0
 11
1465.33
 21
222.061
 31
0.0
  0
LINE
  8
0
 62
     250
 10
1465.33
 20
222.061
 30
0.0
 11
1463.3
 21
219.624
 31
0.0
  0
LINE
  8
0
 62
     250
 10
1463.3
 20
219.624
 30
0.0
 11
1461.1
 21
217.005
 31
0.0
  0
LINE
  8
0
 62
     250
 10
1461.1
 20
217.005
 30
0.0
 11
1458.77
 21
214.252
 31
0.0
  0
LINE
  8
0
 62
     250
 10
1458.77
 20
214.252
 30
0.0
 11
1456.36
 21
211.408
 31
0.0
  0
LINE
  8
0
 62
     250
 10
1456.36
 20
211.408
 30
0.0
 11
1453.9
 21
208.512
 31
0.0
  0
LINE
  8
0
 62
     250
 10
1453.9
 20
208.512
 30
0.0
 11
1451.44
 21
205.613
 31
0.0
  0
LINE
  8
0
 62
     250
 10
1451.44
 20
205.613
 30
0.0
 11
1449.01
 21
202.752
 31
0.0
  0
LINE
  8
0
 62
     250
 10
1449.01
 20
202.752
 30
0.0
 11
1446.66
 21
199.973
 31
0.0
  0
LINE
  8
0
 62
     250
 10
1446.66
 20
199.973
 30
0.0
 11
1444.43
 21
197.318
 31
0.0
  0
LINE
  8
0
 62
     250
 10
1444.43
 20
197.318
 30
0.0
 11
1442.35
 21
194.831
 31
0.0
  0
LINE
  8
0
 62
     250
 10
1442.35
 20
194.831
 30
0.0
 11
1440.48
 21
192.557
 31
0.0
  0
LINE
  8
0
 62
     250
 10
1440.48
 20
192.557
 30
0.0
 11
1438.84
 21
190.537
 31
0.0
  0
LINE
  8
0
 62
     250
 10
1438.84
 20
190.537
 30
0.0
 11
1437.48
 21
188.817
 31
0.0
  0
LINE
  8
0
 62
     250
 10
1437.48
 20
188.817
 30
0.0
 11
1436.69
 21
187.788
 31
0.0
  0
LINE
  8
0
 62
     250
 10
1436.69
 20
187.788
 30
0.0
 11
1436.44
 21
187.438
 31
0.0
  0
LINE
  8
0
 62
     250
 10
1436.44
 20
187.438
 30
0.0
 11
1435.98
 21
186.801
 31
0.0
  0
LINE
  8
0
 62
     250
 10
1435.98
 20
186.801
 30
0.0
 11
1434.6
 21
184.88
 31
0.0
  0
LINE
  8
0
 62
     250
 10
1434.6
 20
184.88
 30
0.0
 11
1432.61
 21
182.073
 31
0.0
  0
LINE
  8
0
 62
     250
 10
1432.61
 20
182.073
 30
0.0
 11
1430.55
 21
179.159
 31
0.0
  0
LINE
  8
0
 62
     250
 10
1430.55
 20
179.159
 30
0.0
 11
1428.53
 21
176.28
 31
0.0
  0
LINE
  8
0
 62
     250
 10
1428.53
 20
176.28
 30
0.0
 11
1426.63
 21
173.579
 31
0.0
  0
LINE
  8
0
 62
     250
 10
1426.63
 20
173.579
 30
0.0
 11
1424.97
 21
171.202
 31
0.0
  0
LINE
  8
0
 62
     250
 10
1424.97
 20
171.202
 30
0.0
 11
1423.63
 21
169.288
 31
0.0
  0
LINE
  8
0
 62
     250
 10
1423.63
 20
169.288
 30
0.0
 11
1422.94
 21
168.307
 31
0.0
  0
LINE
  8
0
 62
     250
 10
1422.94
 20
168.307
 30
0.0
 11
1422.7
 21
167.981
 31
0.0
  0
LINE
  8
0
 62
     250
 10
1422.7
 20
167.981
 30
0.0
 11
1422.4
 21
167.561
 31
0.0
  0
LINE
  8
0
 62
     250
 10
1422.4
 20
167.561
 30
0.0
 11
1421.69
 21
166.163
 31
0.0
  0
LINE
  8
0
 62
     250
 10
1421.69
 20
166.163
 30
0.0
 11
1421.41
 21
164.358
 31
0.0
  0
LINE
  8
0
 62
     250
 10
1421.41
 20
164.358
 30
0.0
 11
1421.88
 21
162.326
 31
0.0
  0
LINE
  8
0
 62
     250
 10
1421.88
 20
162.326
 30
0.0
 11
1422.78
 21
160.424
 31
0.0
  0
LINE
  8
0
 62
     250
 10
1422.78
 20
160.424
 30
0.0
 11
1423.14
 21
159.821
 31
0.0
  0
LINE
  8
0
 62
     250
 10
1423.14
 20
159.821
 30
0.0
 11
1423.46
 21
159.27
 31
0.0
  0
LINE
  8
0
 62
     250
 10
1423.46
 20
159.27
 30
0.0
 11
1424.52
 21
157.668
 31
0.0
  0
LINE
  8
0
 62
     250
 10
1424.52
 20
157.668
 30
0.0
 11
1426.93
 21
154.214
 31
0.0
  0
LINE
  8
0
 62
     250
 10
1426.93
 20
154.214
 30
0.0
 11
1430.18
 21
149.732
 31
0.0
  0
LINE
  8
0
 62
     250
 10
1430.18
 20
149.732
 30
0.0
 11
1434.12
 21
144.497
 31
0.0
  0
LINE
  8
0
 62
     250
 10
1434.12
 20
144.497
 30
0.0
 11
1438.58
 21
138.783
 31
0.0
  0
LINE
  8
0
 62
     250
 10
1438.58
 20
138.783
 30
0.0
 11
1443.4
 21
132.868
 31
0.0
  0
LINE
  8
0
 62
     250
 10
1443.4
 20
132.868
 30
0.0
 11
1448.43
 21
127.021
 31
0.0
  0
LINE
  8
0
 62
     250
 10
1448.43
 20
127.021
 30
0.0
 11
1452.2
 21
122.867
 31
0.0
  0
LINE
  8
0
 62
     250
 10
1452.2
 20
122.867
 30
0.0
 11
1453.5
 21
121.52
 31
0.0
  0
LINE
  8
0
 62
     250
 10
1453.5
 20
121.52
 30
0.0
 11
1454.81
 21
120.153
 31
0.0
  0
LINE
  8
0
 62
     250
 10
1454.81
 20
120.153
 30
0.0
 11
1458.78
 21
116.07
 31
0.0
  0
LINE
  8
0
 62
     250
 10
1458.78
 20
116.07
 30
0.0
 11
1464.54
 21
110.278
 31
0.0
  0
LINE
  8
0
 62
     250
 10
1464.54
 20
110.278
 30
0.0
 11
1470.76
 21
104.279
 31
0.0
  0
LINE
  8
0
 62
     250
 10
1470.76
 20
104.279
 30
0.0
 11
1477.39
 21
98.2059
 31
0.0
  0
LINE
  8
0
 62
     250
 10
1477.39
 20
98.2059
 30
0.0
 11
1484.43
 21
92.1921
 31
0.0
  0
LINE
  8
0
 62
     250
 10
1484.43
 20
92.1921
 30
0.0
 11
1491.83
 21
86.3699
 31
0.0
  0
LINE
  8
0
 62
     250
 10
1491.83
 20
86.3699
 30
0.0
 11
1499.57
 21
80.8729
 31
0.0
  0
LINE
  8
0
 62
     250
 10
1499.57
 20
80.8729
 30
0.0
 11
1505.58
 21
77.0283
 31
0.0
  0
LINE
  8
0
 62
     250
 10
1505.58
 20
77.0283
 30
0.0
 11
1507.63
 21
75.8349
 31
0.0
  0
LINE
  8
0
 62
     250
 10
1507.63
 20
75.8349
 30
0.0
 11
1509.67
 21
74.6485
 31
0.0
  0
LINE
  8
0
 62
     250
 10
1509.67
 20
74.6485
 30
0.0
 11
1515.89
 21
71.2212
 31
0.0
  0
LINE
  8
0
 62
     250
 10
1515.89
 20
71.2212
 30
0.0
 11
1524.21
 21
66.9368
 31
0.0
  0
LINE
  8
0
 62
     250
 10
1524.21
 20
66.9368
 30
0.0
 11
1532.52
 21
63.0301
 31
0.0
  0
LINE
  8
0
 62
     250
 10
1532.52
 20
63.0301
 30
0.0
 11
1540.74
 21
59.5492
 31
0.0
  0
LINE
  8
0
 62
     250
 10
1540.74
 20
59.5492
 30
0.0
 11
1548.8
 21
56.5422
 31
0.0
  0
LINE
  8
0
 62
     250
 10
1548.8
 20
56.5422
 30
0.0
 11
1556.63
 21
54.0551
 31
0.0
  0
LINE
  8
0
 62
     250
 10
1556.63
 20
54.0551
 30
0.0
 11
1564.15
 21
52.1353
 31
0.0
  0
LINE
  8
0
 62
     250
 10
1564.15
 20
52.1353
 30
0.0
 11
1569.48
 21
51.0854
 31
0.0
  0
LINE
  8
0
 62
     250
 10
1569.48
 20
51.0854
 30
0.0
 11
1571.28
 21
50.8303
 31
0.0
  0
LINE
  8
0
 62
     250
 10
1571.28
 20
50.8303
 30
0.0
 11
1573.12
 21
50.57
 31
0.0
  0
LINE
  8
0
 62
     250
 10
1573.12
 20
50.57
 30
0.0
 11
1578.68
 21
49.9389
 31
0.0
  0
LINE
  8
0
 62
     250
 10
1578.68
 20
49.9389
 30
0.0
 11
1586.88
 21
49.2471
 31
0.0
  0
LINE
  8
0
 62
     250
 10
1586.88
 20
49.2471
 30
0.0
 11
1595.62
 21
48.7938
 31
0.0
  0
LINE
  8
0
 62
     250
 10
1595.62
 20
48.7938
 30
0.0
 11
1604.63
 21
48.6145
 31
0.0
  0
LINE
  8
0
 62
     250
 10
1604.63
 20
48.6145
 30
0.0
 11
1613.65
 21
48.7482
 31
0.0
  0
LINE
  8
0
 62
     250
 10
1613.65
 20
48.7482
 30
0.0
 11
1622.43
 21
49.2305
 31
0.0
  0
LINE
  8
0
 62
     250
 10
1622.43
 20
49.2305
 30
0.0
 11
1630.7
 21
50.1001
 31
0.0
  0
LINE
  8
0
 62
     250
 10
1630.7
 20
50.1001
 30
0.0
 11
1636.33
 21
50.9916
 31
0.0
  0
LINE
  8
0
 62
     250
 10
1636.33
 20
50.9916
 30
0.0
 11
1638.18
 21
51.3927
 31
0.0
  0
LINE
  8
0
 62
     250
 10
1638.18
 20
51.3927
 30
0.0
 11
1640.05
 21
51.7962
 31
0.0
  0
LINE
  8
0
 62
     250
 10
1640.05
 20
51.7962
 30
0.0
 11
1645.6
 21
53.1594
 31
0.0
  0
LINE
  8
0
 62
     250
 10
1645.6
 20
53.1594
 30
0.0
 11
1653.68
 21
55.4316
 31
0.0
  0
LINE
  8
0
 62
     250
 10
1653.68
 20
55.4316
 30
0.0
 11
1662.21
 21
58.2316
 31
0.0
  0
LINE
  8
0
 62
     250
 10
1662.21
 20
58.2316
 30
0.0
 11
1671
 21
61.5763
 31
0.0
  0
LINE
  8
0
 62
     250
 10
1671
 20
61.5763
 30
0.0
 11
1679.82
 21
65.4844
 31
0.0
  0
LINE
  8
0
 62
     250
 10
1679.82
 20
65.4844
 30
0.0
 11
1688.48
 21
69.9742
 31
0.0
  0
LINE
  8
0
 62
     250
 10
1688.48
 20
69.9742
 30
0.0
 11
1696.76
 21
75.063
 31
0.0
  0
LINE
  8
0
 62
     250
 10
1696.76
 20
75.063
 30
0.0
 11
1702.61
 21
79.2536
 31
0.0
  0
LINE
  8
0
 62
     250
 10
1702.61
 20
79.2536
 30
0.0
 11
1704.46
 21
80.7709
 31
0.0
  0
LINE
  8
0
 62
     250
 10
1704.46
 20
80.7709
 30
0.0
 11
1706.35
 21
82.3225
 31
0.0
  0
LINE
  8
0
 62
     250
 10
1706.35
 20
82.3225
 30
0.0
 11
1711.83
 21
87.2049
 31
0.0
  0
LINE
  8
0
 62
     250
 10
1711.83
 20
87.2049
 30
0.0
 11
1719.19
 21
94.3448
 31
0.0
  0
LINE
  8
0
 62
     250
 10
1719.19
 20
94.3448
 30
0.0
 11
1726.43
 21
102.027
 31
0.0
  0
LINE
  8
0
 62
     250
 10
1726.43
 20
102.027
 30
0.0
 11
1733.43
 21
110.085
 31
0.0
  0
LINE
  8
0
 62
     250
 10
1733.43
 20
110.085
 30
0.0
 11
1740.09
 21
118.351
 31
0.0
  0
LINE
  8
0
 62
     250
 10
1740.09
 20
118.351
 30
0.0
 11
1746.29
 21
126.66
 31
0.0
  0
LINE
  8
0
 62
     250
 10
1746.29
 20
126.66
 30
0.0
 11
1751.92
 21
134.845
 31
0.0
  0
LINE
  8
0
 62
     250
 10
1751.92
 20
134.845
 30
0.0
 11
1755.68
 21
140.738
 31
0.0
  0
LINE
  8
0
 62
     250
 10
1755.68
 20
140.738
 30
0.0
 11
1756.87
 21
142.738
 31
0.0
  0
LINE
  8
0
 62
     250
 10
1756.87
 20
142.738
 30
0.0
 11
1757.49
 21
143.778
 31
0.0
  0
LINE
  8
0
 62
     250
 10
1757.49
 20
143.778
 30
0.0
 11
1759.25
 21
146.95
 31
0.0
  0
LINE
  8
0
 62
     250
 10
1759.25
 20
146.95
 30
0.0
 11
1761.77
 21
151.805
 31
0.0
  0
LINE
  8
0
 62
     250
 10
1761.77
 20
151.805
 30
0.0
 11
1764.4
 21
157.176
 31
0.0
  0
LINE
  8
0
 62
     250
 10
1764.4
 20
157.176
 30
0.0
 11
1767.09
 21
162.939
 31
0.0
  0
LINE
  8
0
 62
     250
 10
1767.09
 20
162.939
 30
0.0
 11
1769.8
 21
168.967
 31
0.0
  0
LINE
  8
0
 62
     250
 10
1769.8
 20
168.967
 30
0.0
 11
1772.5
 21
175.132
 31
0.0
  0
LINE
  8
0
 62
     250
 10
1772.5
 20
175.132
 30
0.0
 11
1775.14
 21
181.311
 31
0.0
  0
LINE
  8
0
 62
     250
 10
1775.14
 20
181.311
 30
0.0
 11
1777.68
 21
187.375
 31
0.0
  0
LINE
  8
0
 62
     250
 10
1777.68
 20
187.375
 30
0.0
 11
1780.07
 21
193.198
 31
0.0
  0
LINE
  8
0
 62
     250
 10
1780.07
 20
193.198
 30
0.0
 11
1782.28
 21
198.655
 31
0.0
  0
LINE
  8
0
 62
     250
 10
1782.28
 20
198.655
 30
0.0
 11
1784.26
 21
203.618
 31
0.0
  0
LINE
  8
0
 62
     250
 10
1784.26
 20
203.618
 30
0.0
 11
1785.98
 21
207.963
 31
0.0
  0
LINE
  8
0
 62
     250
 10
1785.98
 20
207.963
 30
0.0
 11
1787.39
 21
211.562
 31
0.0
  0
LINE
  8
0
 62
     250
 10
1787.39
 20
211.562
 30
0.0
 11
1788.44
 21
214.288
 31
0.0
  0
LINE
  8
0
 62
     250
 10
1788.44
 20
214.288
 30
0.0
 11
1789.11
 21
216.017
 31
0.0
  0
LINE
  8
0
 62
     250
 10
1789.11
 20
216.017
 30
0.0
 11
1789.34
 21
216.621
 31
0.0
  0
LINE
  8
0
 62
     250
 10
1789.34
 20
216.621
 30
0.0
 11
1789.34
 21
216.621
 31
0.0
  0
LINE
  8
0
 62
     250
 10
1785
 20
209.788
 30
0.0
 11
1785
 21
209.788
 31
0.0
  0
LINE
  8
0
 62
     250
 10
1785
 20
209.788
 30
0.0
 11
1784.82
 21
209.518
 31
0.0
  0
LINE
  8
0
 62
     250
 10
1784.82
 20
209.518
 30
0.0
 11
1784.3
 21
208.74
 31
0.0
  0
LINE
  8
0
 62
     250
 10
1784.3
 20
208.74
 30
0.0
 11
1783.47
 21
207.502
 31
0.0
  0
LINE
  8
0
 62
     250
 10
1783.47
 20
207.502
 30
0.0
 11
1782.35
 21
205.851
 31
0.0
  0
LINE
  8
0
 62
     250
 10
1782.35
 20
205.851
 30
0.0
 11
1780.97
 21
203.84
 31
0.0
  0
LINE
  8
0
 62
     250
 10
1780.97
 20
203.84
 30
0.0
 11
1779.36
 21
201.513
 31
0.0
  0
LINE
  8
0
 62
     250
 10
1779.36
 20
201.513
 30
0.0
 11
1777.54
 21
198.921
 31
0.0
  0
LINE
  8
0
 62
     250
 10
1777.54
 20
198.921
 30
0.0
 11
1775.54
 21
196.111
 31
0.0
  0
LINE
  8
0
 62
     250
 10
1775.54
 20
196.111
 30
0.0
 11
1773.39
 21
193.133
 31
0.0
  0
LINE
  8
0
 62
     250
 10
1773.39
 20
193.133
 30
0.0
 11
1771.11
 21
190.036
 31
0.0
  0
LINE
  8
0
 62
     250
 10
1771.11
 20
190.036
 30
0.0
 11
1768.73
 21
186.867
 31
0.0
  0
LINE
  8
0
 62
     250
 10
1768.73
 20
186.867
 30
0.0
 11
1766.28
 21
183.674
 31
0.0
  0
LINE
  8
0
 62
     250
 10
1766.28
 20
183.674
 30
0.0
 11
1763.78
 21
180.509
 31
0.0
  0
LINE
  8
0
 62
     250
 10
1763.78
 20
180.509
 30
0.0
 11
1761.25
 21
177.417
 31
0.0
  0
LINE
  8
0
 62
     250
 10
1761.25
 20
177.417
 30
0.0
 11
1758.73
 21
174.447
 31
0.0
  0
LINE
  8
0
 62
     250
 10
1758.73
 20
174.447
 30
0.0
 11
1756.87
 21
172.34
 31
0.0
  0
LINE
  8
0
 62
     250
 10
1756.87
 20
172.34
 30
0.0
 11
1756.24
 21
171.649
 31
0.0
  0
LINE
  8
0
 62
     250
 10
1756.24
 20
171.649
 30
0.0
 11
1755
 21
170.296
 31
0.0
  0
LINE
  8
0
 62
     250
 10
1755
 20
170.296
 30
0.0
 11
1751.07
 21
166.444
 31
0.0
  0
LINE
  8
0
 62
     250
 10
1751.07
 20
166.444
 30
0.0
 11
1745.44
 21
161.601
 31
0.0
  0
LINE
  8
0
 62
     250
 10
1745.44
 20
161.601
 30
0.0
 11
1739.42
 21
157.107
 31
0.0
  0
LINE
  8
0
 62
     250
 10
1739.42
 20
157.107
 30
0.0
 11
1733.06
 21
152.949
 31
0.0
  0
LINE
  8
0
 62
     250
 10
1733.06
 20
152.949
 30
0.0
 11
1726.42
 21
149.109
 31
0.0
  0
LINE
  8
0
 62
     250
 10
1726.42
 20
149.109
 30
0.0
 11
1719.57
 21
145.574
 31
0.0
  0
LINE
  8
0
 62
     250
 10
1719.57
 20
145.574
 30
0.0
 11
1712.55
 21
142.332
 31
0.0
  0
LINE
  8
0
 62
     250
 10
1712.55
 20
142.332
 30
0.0
 11
1707.23
 21
140.075
 31
0.0
  0
LINE
  8
0
 62
     250
 10
1707.23
 20
140.075
 30
0.0
 11
1705.43
 21
139.364
 31
0.0
  0
LINE
  8
0
 62
     250
 10
1705.43
 20
139.364
 30
0.0
 11
1703.68
 21
138.672
 31
0.0
  0
LINE
  8
0
 62
     250
 10
1703.68
 20
138.672
 30
0.0
 11
1698.37
 21
136.747
 31
0.0
  0
LINE
  8
0
 62
     250
 10
1698.37
 20
136.747
 30
0.0
 11
1691.53
 21
134.546
 31
0.0
  0
LINE
  8
0
 62
     250
 10
1691.53
 20
134.546
 30
0.0
 11
1684.97
 21
132.742
 31
0.0
  0
LINE
  8
0
 62
     250
 10
1684.97
 20
132.742
 30
0.0
 11
1678.72
 21
131.313
 31
0.0
  0
LINE
  8
0
 62
     250
 10
1678.72
 20
131.313
 30
0.0
 11
1672.84
 21
130.24
 31
0.0
  0
LINE
  8
0
 62
     250
 10
1672.84
 20
130.24
 30
0.0
 11
1667.39
 21
129.501
 31
0.0
  0
LINE
  8
0
 62
     250
 10
1667.39
 20
129.501
 30
0.0
 11
1662.42
 21
129.074
 31
0.0
  0
LINE
  8
0
 62
     250
 10
1662.42
 20
129.074
 30
0.0
 11
1659.09
 21
128.939
 31
0.0
  0
LINE
  8
0
 62
     250
 10
1659.09
 20
128.939
 30
0.0
 11
1657.98
 21
128.939
 31
0.0
  0
LINE
  8
0
 62
     250
 10
1657.98
 20
128.939
 30
0.0
 11
1656.98
 21
128.94
 31
0.0
  0
LINE
  8
0
 62
     250
 10
1656.98
 20
128.94
 30
0.0
 11
1654
 21
129.037
 31
0.0
  0
LINE
  8
0
 62
     250
 10
1654
 20
129.037
 30
0.0
 11
1650.31
 21
129.341
 31
0.0
  0
LINE
  8
0
 62
     250
 10
1650.31
 20
129.341
 30
0.0
 11
1646.81
 21
129.887
 31
0.0
  0
LINE
  8
0
 62
     250
 10
1646.81
 20
129.887
 30
0.0
 11
1643.42
 21
130.711
 31
0.0
  0
LINE
  8
0
 62
     250
 10
1643.42
 20
130.711
 30
0.0
 11
1640.01
 21
131.848
 31
0.0
  0
LINE
  8
0
 62
     250
 10
1640.01
 20
131.848
 30
0.0
 11
1636.51
 21
133.332
 31
0.0
  0
LINE
  8
0
 62
     250
 10
1636.51
 20
133.332
 30
0.0
 11
1632.79
 21
135.199
 31
0.0
  0
LINE
  8
0
 62
     250
 10
1632.79
 20
135.199
 30
0.0
 11
1629.77
 21
136.893
 31
0.0
  0
LINE
  8
0
 62
     250
 10
1629.77
 20
136.893
 30
0.0
 11
1628.78
 21
137.484
 31
0.0
  0
LINE
  8
0
 62
     250
 10
1628.78
 20
137.484
 30
0.0
 11
1627.74
 21
138.105
 31
0.0
  0
LINE
  8
0
 62
     250
 10
1627.74
 20
138.105
 30
0.0
 11
1624.57
 21
139.892
 31
0.0
  0
LINE
  8
0
 62
     250
 10
1624.57
 20
139.892
 30
0.0
 11
1620.34
 21
142.069
 31
0.0
  0
LINE
  8
0
 62
     250
 10
1620.34
 20
142.069
 30
0.0
 11
1616.06
 21
143.966
 31
0.0
  0
LINE
  8
0
 62
     250
 10
1616.06
 20
143.966
 30
0.0
 11
1611.71
 21
145.537
 31
0.0
  0
LINE
  8
0
 62
     250
 10
1611.71
 20
145.537
 30
0.0
 11
1607.28
 21
146.734
 31
0.0
  0
LINE
  8
0
 62
     250
 10
1607.28
 20
146.734
 30
0.0
 11
1602.73
 21
147.505
 31
0.0
  0
LINE
  8
0
 62
     250
 10
1602.73
 20
147.505
 30
0.0
 11
1598.06
 21
147.804
 31
0.0
  0
LINE
  8
0
 62
     250
 10
1598.06
 20
147.804
 30
0.0
 11
1594.44
 21
147.705
 31
0.0
  0
LINE
  8
0
 62
     250
 10
1594.44
 20
147.705
 30
0.0
 11
1593.24
 21
147.584
 31
0.0
  0
LINE
  8
0
 62
     250
 10
1593.24
 20
147.584
 30
0.0
 11
1592.09
 21
147.468
 31
0.0
  0
LINE
  8
0
 62
     250
 10
1592.09
 20
147.468
 30
0.0
 11
1588.66
 21
146.859
 31
0.0
  0
LINE
  8
0
 62
     250
 10
1588.66
 20
146.859
 30
0.0
 11
1584.64
 21
145.73
 31
0.0
  0
LINE
  8
0
 62
     250
 10
1584.64
 20
145.73
 30
0.0
 11
1581.05
 21
144.285
 31
0.0
  0
LINE
  8
0
 62
     250
 10
1581.05
 20
144.285
 30
0.0
 11
1577.77
 21
142.606
 31
0.0
  0
LINE
  8
0
 62
     250
 10
1577.77
 20
142.606
 30
0.0
 11
1574.67
 21
140.781
 31
0.0
  0
LINE
  8
0
 62
     250
 10
1574.67
 20
140.781
 30
0.0
 11
1571.62
 21
138.891
 31
0.0
  0
LINE
  8
0
 62
     250
 10
1571.62
 20
138.891
 30
0.0
 11
1568.49
 21
137.024
 31
0.0
  0
LINE
  8
0
 62
     250
 10
1568.49
 20
137.024
 30
0.0
 11
1566.01
 21
135.671
 31
0.0
  0
LINE
  8
0
 62
     250
 10
1566.01
 20
135.671
 30
0.0
 11
1565.16
 21
135.261
 31
0.0
  0
LINE
  8
0
 62
     250
 10
1565.16
 20
135.261
 30
0.0
 11
1564.27
 21
134.833
 31
0.0
  0
LINE
  8
0
 62
     250
 10
1564.27
 20
134.833
 30
0.0
 11
1561.57
 21
133.622
 31
0.0
  0
LINE
  8
0
 62
     250
 10
1561.57
 20
133.622
 30
0.0
 11
1557.76
 21
132.102
 31
0.0
  0
LINE
  8
0
 62
     250
 10
1557.76
 20
132.102
 30
0.0
 11
1553.68
 21
130.763
 31
0.0
  0
LINE
  8
0
 62
     250
 10
1553.68
 20
130.763
 30
0.0
 11
1549.33
 21
129.669
 31
0.0
  0
LINE
  8
0
 62
     250
 10
1549.33
 20
129.669
 30
0.0
 11
1544.68
 21
128.884
 31
0.0
  0
LINE
  8
0
 62
     250
 10
1544.68
 20
128.884
 30
0.0
 11
1539.69
 21
128.468
 31
0.0
  0
LINE
  8
0
 62
     250
 10
1539.69
 20
128.468
 30
0.0
 11
1534.35
 21
128.484
 31
0.0
  0
LINE
  8
0
 62
     250
 10
1534.35
 20
128.484
 30
0.0
 11
1530.06
 21
128.809
 31
0.0
  0
LINE
  8
0
 62
     250
 10
1530.06
 20
128.809
 30
0.0
 11
1528.64
 21
128.995
 31
0.0
  0
LINE
  8
0
 62
     250
 10
1528.64
 20
128.995
 30
0.0
 11
1526.96
 21
129.217
 31
0.0
  0
LINE
  8
0
 62
     250
 10
1526.96
 20
129.217
 30
0.0
 11
1521.95
 21
130.04
 31
0.0
  0
LINE
  8
0
 62
     250
 10
1521.95
 20
130.04
 30
0.0
 11
1514
 21
131.534
 31
0.0
  0
LINE
  8
0
 62
     250
 10
1514
 20
131.534
 30
0.0
 11
1505.23
 21
133.361
 31
0.0
  0
LINE
  8
0
 62
     250
 10
1505.23
 20
133.361
 30
0.0
 11
1496.08
 21
135.406
 31
0.0
  0
LINE
  8
0
 62
     250
 10
1496.08
 20
135.406
 30
0.0
 11
1487.01
 21
137.554
 31
0.0
  0
LINE
  8
0
 62
     250
 10
1487.01
 20
137.554
 30
0.0
 11
1478.45
 21
139.689
 31
0.0
  0
LINE
  8
0
 62
     250
 10
1478.45
 20
139.689
 30
0.0
 11
1470.83
 21
141.694
 31
0.0
  0
LINE
  8
0
 62
     250
 10
1470.83
 20
141.694
 30
0.0
 11
1466.17
 21
142.994
 31
0.0
  0
LINE
  8
0
 62
     250
 10
1466.17
 20
142.994
 30
0.0
 11
1464.62
 21
143.454
 31
0.0
  0
LINE
  8
0
 62
     250
 10
1464.62
 20
143.454
 30
0.0
 11
1463.92
 21
143.662
 31
0.0
  0
LINE
  8
0
 62
     250
 10
1463.92
 20
143.662
 30
0.0
 11
1461.83
 21
144.33
 31
0.0
  0
LINE
  8
0
 62
     250
 10
1461.83
 20
144.33
 30
0.0
 11
1458.88
 21
145.342
 31
0.0
  0
LINE
  8
0
 62
     250
 10
1458.88
 20
145.342
 30
0.0
 11
1455.8
 21
146.462
 31
0.0
  0
LINE
  8
0
 62
     250
 10
1455.8
 20
146.462
 30
0.0
 11
1452.65
 21
147.665
 31
0.0
  0
LINE
  8
0
 62
     250
 10
1452.65
 20
147.665
 30
0.0
 11
1449.48
 21
148.924
 31
0.0
  0
LINE
  8
0
 62
     250
 10
1449.48
 20
148.924
 30
0.0
 11
1446.33
 21
150.213
 31
0.0
  0
LINE
  8
0
 62
     250
 10
1446.33
 20
150.213
 30
0.0
 11
1443.26
 21
151.504
 31
0.0
  0
LINE
  8
0
 62
     250
 10
1443.26
 20
151.504
 30
0.0
 11
1440.3
 21
152.774
 31
0.0
  0
LINE
  8
0
 62
     250
 10
1440.3
 20
152.774
 30
0.0
 11
1437.51
 21
153.992
 31
0.0
  0
LINE
  8
0
 62
     250
 10
1437.51
 20
153.992
 30
0.0
 11
1434.93
 21
155.133
 31
0.0
  0
LINE
  8
0
 62
     250
 10
1434.93
 20
155.133
 30
0.0
 11
1432.62
 21
156.172
 31
0.0
  0
LINE
  8
0
 62
     250
 10
1432.62
 20
156.172
 30
0.0
 11
1430.63
 21
157.081
 31
0.0
  0
LINE
  8
0
 62
     250
 10
1430.63
 20
157.081
 30
0.0
 11
1428.99
 21
157.835
 31
0.0
  0
LINE
  8
0
 62
     250
 10
1428.99
 20
157.835
 30
0.0
 11
1427.76
 21
158.405
 31
0.0
  0
LINE
  8
0
 62
     250
 10
1427.76
 20
158.405
 30
0.0
 11
1426.99
 21
158.768
 31
0.0
  0
LINE
  8
0
 62
     250
 10
1426.99
 20
158.768
 30
0.0
 11
1426.72
 21
158.893
 31
0.0
  0
LINE
  8
0
 62
     250
 10
1426.72
 20
158.893
 30
0.0
 11
1426.72
 21
158.893
 31
0.0
  0
LINE
  8
0
 62
     250
 10
1577.83
 20
99.4392
 30
0.0
 11
1577.87
 21
100.685
 31
0.0
  0
LINE
  8
0
 62
     250
 10
1577.87
 20
100.685
 30
0.0
 11
1578.52
 21
104.4
 31
0.0
  0
LINE
  8
0
 62
     250
 10
1578.52
 20
104.4
 30
0.0
 11
1580.13
 21
108.99
 31
0.0
  0
LINE
  8
0
 62
     250
 10
1580.13
 20
108.99
 30
0.0
 11
1582.56
 21
113.115
 31
0.0
  0
LINE
  8
0
 62
     250
 10
1582.56
 20
113.115
 30
0.0
 11
1585.7
 21
116.68
 31
0.0
  0
LINE
  8
0
 62
     250
 10
1585.7
 20
116.68
 30
0.0
 11
1589.46
 21
119.587
 31
0.0
  0
LINE
  8
0
 62
     250
 10
1589.46
 20
119.587
 30
0.0
 11
1593.74
 21
121.745
 31
0.0
  0
LINE
  8
0
 62
     250
 10
1593.74
 20
121.745
 30
0.0
 11
1598.43
 21
123.056
 31
0.0
  0
LINE
  8
0
 62
     250
 10
1598.43
 20
123.056
 30
0.0
 11
1602.18
 21
123.457
 31
0.0
  0
LINE
  8
0
 62
     250
 10
1602.18
 20
123.457
 30
0.0
 11
1603.43
 21
123.424
 31
0.0
  0
LINE
  8
0
 62
     250
 10
1603.43
 20
123.424
 30
0.0
 11
1604.69
 21
123.392
 31
0.0
  0
LINE
  8
0
 62
     250
 10
1604.69
 20
123.392
 30
0.0
 11
1608.45
 21
122.785
 31
0.0
  0
LINE
  8
0
 62
     250
 10
1608.45
 20
122.785
 30
0.0
 11
1613.1
 21
121.207
 31
0.0
  0
LINE
  8
0
 62
     250
 10
1613.1
 20
121.207
 30
0.0
 11
1617.28
 21
118.791
 31
0.0
  0
LINE
  8
0
 62
     250
 10
1617.28
 20
118.791
 30
0.0
 11
1620.89
 21
115.644
 31
0.0
  0
LINE
  8
0
 62
     250
 10
1620.89
 20
115.644
 30
0.0
 11
1623.84
 21
111.865
 31
0.0
  0
LINE
  8
0
 62
     250
 10
1623.84
 20
111.865
 30
0.0
 11
1626.03
 21
107.561
 31
0.0
  0
LINE
  8
0
 62
     250
 10
1626.03
 20
107.561
 30
0.0
 11
1627.36
 21
102.832
 31
0.0
  0
LINE
  8
0
 62
     250
 10
1627.36
 20
102.832
 30
0.0
 11
1627.77
 21
99.0424
 31
0.0
  0
LINE
  8
0
 62
     250
 10
1627.77
 20
99.0424
 30
0.0
 11
1627.74
 21
97.7829
 31
0.0
  0
LINE
  8
0
 62
     250
 10
1627.74
 20
97.7829
 30
0.0
 11
1627.71
 21
96.5246
 31
0.0
  0
LINE
  8
0
 62
     250
 10
1627.71
 20
96.5246
 30
0.0
 11
1627.1
 21
92.7612
 31
0.0
  0
LINE
  8
0
 62
     250
 10
1627.1
 20
92.7612
 30
0.0
 11
1625.53
 21
88.1091
 31
0.0
  0
LINE
  8
0
 62
     250
 10
1625.53
 20
88.1091
 30
0.0
 11
1623.11
 21
83.9251
 31
0.0
  0
LINE
  8
0
 62
     250
 10
1623.11
 20
83.9251
 30
0.0
 11
1619.97
 21
80.3081
 31
0.0
  0
LINE
  8
0
 62
     250
 10
1619.97
 20
80.3081
 30
0.0
 11
1616.19
 21
77.3536
 31
0.0
  0
LINE
  8
0
 62
     250
 10
1616.19
 20
77.3536
 30
0.0
 11
1611.89
 21
75.1611
 31
0.0
  0
LINE
  8
0
 62
     250
 10
1611.89
 20
75.1611
 30
0.0
 11
1607.17
 21
73.8283
 31
0.0
  0
LINE
  8
0
 62
     250
 10
1607.17
 20
73.8283
 30
0.0
 11
1603.38
 21
73.4205
 31
0.0
  0
LINE
  8
0
 62
     250
 10
1603.38
 20
73.4205
 30
0.0
 11
1602.12
 21
73.4522
 31
0.0
  0
LINE
  8
0
 62
     250
 10
1602.12
 20
73.4522
 30
0.0
 11
1601.04
 21
73.4811
 31
0.0
  0
LINE
  8
0
 62
     250
 10
1601.04
 20
73.4811
 30
0.0
 11
1597.8
 21
73.9401
 31
0.0
  0
LINE
  8
0
 62
     250
 10
1597.8
 20
73.9401
 30
0.0
 11
1593.74
 21
75.1293
 31
0.0
  0
LINE
  8
0
 62
     250
 10
1593.74
 20
75.1293
 30
0.0
 11
1590.01
 21
76.9539
 31
0.0
  0
LINE
  8
0
 62
     250
 10
1590.01
 20
76.9539
 30
0.0
 11
1586.66
 21
79.3475
 31
0.0
  0
LINE
  8
0
 62
     250
 10
1586.66
 20
79.3475
 30
0.0
 11
1583.75
 21
82.2494
 31
0.0
  0
LINE
  8
0
 62
     250
 10
1583.75
 20
82.2494
 30
0.0
 11
1581.35
 21
85.5913
 31
0.0
  0
LINE
  8
0
 62
     250
 10
1581.35
 20
85.5913
 30
0.0
 11
1579.52
 21
89.3092
 31
0.0
  0
LINE
  8
0
 62
     250
 10
1579.52
 20
89.3092
 30
0.0
 11
1578.54
 21
92.3135
 31
0.0
  0
LINE
  8
0
 62
     250
 10
1578.54
 20
92.3135
 30
0.0
 11
1578.32
 21
93.3372
 31
0.0
  0
LINE
  8
0
 62
     250
 10
1570.59
 20
98.7033
 30
0.0
 11
1570.3
 21
98.6786
 31
0.0
  0
LINE
  8
0
 62
     250
 10
1570.3
 20
98.6786
 30
0.0
 11
1569.42
 21
98.3753
 31
0.0
  0
LINE
  8
0
 62
     250
 10
1569.42
 20
98.3753
 30
0.0
 11
1568.5
 21
97.6644
 31
0.0
  0
LINE
  8
0
 62
     250
 10
1568.5
 20
97.6644
 30
0.0
 11
1567.9
 21
96.6639
 31
0.0
  0
LINE
  8
0
 62
     250
 10
1567.9
 20
96.6639
 30
0.0
 11
1567.72
 21
95.7626
 31
0.0
  0
LINE
  8
0
 62
     250
 10
1567.72
 20
95.7626
 30
0.0
 11
1567.73
 21
95.4663
 31
0.0
  0
LINE
  8
0
 62
     250
 10
1567.73
 20
95.4663
 30
0.0
 11
1567.75
 21
95.1699
 31
0.0
  0
LINE
  8
0
 62
     250
 10
1567.75
 20
95.1699
 30
0.0
 11
1568.05
 21
94.295
 31
0.0
  0
LINE
  8
0
 62
     250
 10
1568.05
 20
94.295
 30
0.0
 11
1568.76
 21
93.3662
 31
0.0
  0
LINE
  8
0
 62
     250
 10
1568.76
 20
93.3662
 30
0.0
 11
1569.77
 21
92.7724
 31
0.0
  0
LINE
  8
0
 62
     250
 10
1569.77
 20
92.7724
 30
0.0
 11
1570.67
 21
92.5862
 31
0.0
  0
LINE
  8
0
 62
     250
 10
1570.67
 20
92.5862
 30
0.0
 11
1570.97
 21
92.6042
 31
0.0
  0
LINE
  8
0
 62
     250
 10
1570.97
 20
92.6042
 30
0.0
 11
1570.97
 21
92.6042
 31
0.0
  0
LINE
  8
0
 62
     250
 10
1570.97
 20
92.6042
 30
0.0
 11
1571.39
 21
92.6483
 31
0.0
  0
LINE
  8
0
 62
     250
 10
1571.39
 20
92.6483
 30
0.0
 11
1572.49
 21
92.7626
 31
0.0
  0
LINE
  8
0
 62
     250
 10
1572.49
 20
92.7626
 30
0.0
 11
1574.06
 21
92.9266
 31
0.0
  0
LINE
  8
0
 62
     250
 10
1574.06
 20
92.9266
 30
0.0
 11
1575.88
 21
93.1182
 31
0.0
  0
LINE
  8
0
 62
     250
 10
1575.88
 20
93.1182
 30
0.0
 11
1577.72
 21
93.3168
 31
0.0
  0
LINE
  8
0
 62
     250
 10
1577.72
 20
93.3168
 30
0.0
 11
1579.38
 21
93.497
 31
0.0
  0
LINE
  8
0
 62
     250
 10
1579.38
 20
93.497
 30
0.0
 11
1580.61
 21
93.6417
 31
0.0
  0
LINE
  8
0
 62
     250
 10
1580.61
 20
93.6417
 30
0.0
 11
1581.07
 21
93.6942
 31
0.0
  0
LINE
  8
0
 62
     250
 10
1581.07
 20
93.6942
 30
0.0
 11
1581.21
 21
93.7246
 31
0.0
  0
LINE
  8
0
 62
     250
 10
1581.21
 20
93.7246
 30
0.0
 11
1581.3
 21
93.7451
 31
0.0
  0
LINE
  8
0
 62
     250
 10
1581.3
 20
93.7451
 30
0.0
 11
1581.51
 21
94.0978
 31
0.0
  0
LINE
  8
0
 62
     250
 10
1581.51
 20
94.0978
 30
0.0
 11
1581.61
 21
94.8863
 31
0.0
  0
LINE
  8
0
 62
     250
 10
1581.61
 20
94.8863
 30
0.0
 11
1581.58
 21
95.8744
 31
0.0
  0
LINE
  8
0
 62
     250
 10
1581.58
 20
95.8744
 30
0.0
 11
1581.52
 21
96.6004
 31
0.0
  0
LINE
  8
0
 62
     250
 10
1581.52
 20
96.6004
 30
0.0
 11
1581.5
 21
96.8417
 31
0.0
  0
LINE
  8
0
 62
     250
 10
1581.5
 20
96.8417
 30
0.0
 11
1581.48
 21
97.0746
 31
0.0
  0
LINE
  8
0
 62
     250
 10
1581.48
 20
97.0746
 30
0.0
 11
1581.37
 21
97.7692
 31
0.0
  0
LINE
  8
0
 62
     250
 10
1581.37
 20
97.7692
 30
0.0
 11
1581.14
 21
98.6578
 31
0.0
  0
LINE
  8
0
 62
     250
 10
1581.14
 20
98.6578
 30
0.0
 11
1580.87
 21
99.3401
 31
0.0
  0
LINE
  8
0
 62
     250
 10
1580.87
 20
99.3401
 30
0.0
 11
1580.68
 21
99.6266
 31
0.0
  0
LINE
  8
0
 62
     250
 10
1580.68
 20
99.6266
 30
0.0
 11
1580.6
 21
99.6446
 31
0.0
  0
LINE
  8
0
 62
     250
 10
1580.6
 20
99.6446
 30
0.0
 11
1580.52
 21
99.664
 31
0.0
  0
LINE
  8
0
 62
     250
 10
1580.52
 20
99.664
 30
0.0
 11
1580.09
 21
99.628
 31
0.0
  0
LINE
  8
0
 62
     250
 10
1580.09
 20
99.628
 30
0.0
 11
1578.95
 21
99.5355
 31
0.0
  0
LINE
  8
0
 62
     250
 10
1578.95
 20
99.5355
 30
0.0
 11
1577.4
 21
99.3909
 31
0.0
  0
LINE
  8
0
 62
     250
 10
1577.4
 20
99.3909
 30
0.0
 11
1575.63
 21
99.2159
 31
0.0
  0
LINE
  8
0
 62
     250
 10
1575.63
 20
99.2159
 30
0.0
 11
1573.85
 21
99.0367
 31
0.0
  0
LINE
  8
0
 62
     250
 10
1573.85
 20
99.0367
 30
0.0
 11
1572.29
 21
98.8769
 31
0.0
  0
LINE
  8
0
 62
     250
 10
1572.29
 20
98.8769
 30
0.0
 11
1571.13
 21
98.757
 31
0.0
  0
LINE
  8
0
 62
     250
 10
1571.13
 20
98.757
 30
0.0
 11
1570.7
 21
98.7129
 31
0.0
  0
LINE
  8
0
 62
     250
 10
1570.7
 20
98.7129
 30
0.0
 11
1570.59
 21
98.7033
 31
0.0
  0
LINE
  8
0
 62
     250
 10
1603.51
 20
83.8331
 30
0.0
 11
1602.78
 21
83.8521
 31
0.0
  0
LINE
  8
0
 62
     250
 10
1602.78
 20
83.8521
 30
0.0
 11
1600.61
 21
84.2038
 31
0.0
  0
LINE
  8
0
 62
     250
 10
1600.61
 20
84.2038
 30
0.0
 11
1597.92
 21
85.1158
 31
0.0
  0
LINE
  8
0
 62
     250
 10
1597.92
 20
85.1158
 30
0.0
 11
1595.5
 21
86.5106
 31
0.0
  0
LINE
  8
0
 62
     250
 10
1595.5
 20
86.5106
 30
0.0
 11
1593.42
 21
88.3296
 31
0.0
  0
LINE
  8
0
 62
     250
 10
1593.42
 20
88.3296
 30
0.0
 11
1591.71
 21
90.5122
 31
0.0
  0
LINE
  8
0
 62
     250
 10
1591.71
 20
90.5122
 30
0.0
 11
1590.45
 21
92.9996
 31
0.0
  0
LINE
  8
0
 62
     250
 10
1590.45
 20
92.9996
 30
0.0
 11
1589.68
 21
95.7322
 31
0.0
  0
LINE
  8
0
 62
     250
 10
1589.68
 20
95.7322
 30
0.0
 11
1589.44
 21
97.9219
 31
0.0
  0
LINE
  8
0
 62
     250
 10
1589.44
 20
97.9219
 30
0.0
 11
1589.46
 21
98.6483
 31
0.0
  0
LINE
  8
0
 62
     250
 10
1589.46
 20
98.6483
 30
0.0
 11
1589.48
 21
99.3757
 31
0.0
  0
LINE
  8
0
 62
     250
 10
1589.48
 20
99.3757
 30
0.0
 11
1589.83
 21
101.55
 31
0.0
  0
LINE
  8
0
 62
     250
 10
1589.83
 20
101.55
 30
0.0
 11
1590.74
 21
104.239
 31
0.0
  0
LINE
  8
0
 62
     250
 10
1590.74
 20
104.239
 30
0.0
 11
1592.14
 21
106.656
 31
0.0
  0
LINE
  8
0
 62
     250
 10
1592.14
 20
106.656
 30
0.0
 11
1593.95
 21
108.747
 31
0.0
  0
LINE
  8
0
 62
     250
 10
1593.95
 20
108.747
 30
0.0
 11
1596.13
 21
110.453
 31
0.0
  0
LINE
  8
0
 62
     250
 10
1596.13
 20
110.453
 30
0.0
 11
1598.62
 21
111.72
 31
0.0
  0
LINE
  8
0
 62
     250
 10
1598.62
 20
111.72
 30
0.0
 11
1601.35
 21
112.491
 31
0.0
  0
LINE
  8
0
 62
     250
 10
1601.35
 20
112.491
 30
0.0
 11
1603.53
 21
112.726
 31
0.0
  0
LINE
  8
0
 62
     250
 10
1603.53
 20
112.726
 30
0.0
 11
1604.26
 21
112.707
 31
0.0
  0
LINE
  8
0
 62
     250
 10
1604.26
 20
112.707
 30
0.0
 11
1604.99
 21
112.689
 31
0.0
  0
LINE
  8
0
 62
     250
 10
1604.99
 20
112.689
 30
0.0
 11
1607.16
 21
112.338
 31
0.0
  0
LINE
  8
0
 62
     250
 10
1607.16
 20
112.338
 30
0.0
 11
1609.84
 21
111.426
 31
0.0
  0
LINE
  8
0
 62
     250
 10
1609.84
 20
111.426
 30
0.0
 11
1612.26
 21
110.031
 31
0.0
  0
LINE
  8
0
 62
     250
 10
1612.26
 20
110.031
 30
0.0
 11
1614.35
 21
108.212
 31
0.0
  0
LINE
  8
0
 62
     250
 10
1614.35
 20
108.212
 30
0.0
 11
1616.05
 21
106.029
 31
0.0
  0
LINE
  8
0
 62
     250
 10
1616.05
 20
106.029
 30
0.0
 11
1617.32
 21
103.542
 31
0.0
  0
LINE
  8
0
 62
     250
 10
1617.32
 20
103.542
 30
0.0
 11
1618.09
 21
100.809
 31
0.0
  0
LINE
  8
0
 62
     250
 10
1618.09
 20
100.809
 30
0.0
 11
1618.33
 21
98.6194
 31
0.0
  0
LINE
  8
0
 62
     250
 10
1618.33
 20
98.6194
 30
0.0
 11
1618.31
 21
97.8916
 31
0.0
  0
LINE
  8
0
 62
     250
 10
1618.31
 20
97.8916
 30
0.0
 11
1618.29
 21
97.1656
 31
0.0
  0
LINE
  8
0
 62
     250
 10
1618.29
 20
97.1656
 30
0.0
 11
1617.94
 21
94.9911
 31
0.0
  0
LINE
  8
0
 62
     250
 10
1617.94
 20
94.9911
 30
0.0
 11
1617.03
 21
92.3025
 31
0.0
  0
LINE
  8
0
 62
     250
 10
1617.03
 20
92.3025
 30
0.0
 11
1615.63
 21
89.8853
 31
0.0
  0
LINE
  8
0
 62
     250
 10
1615.63
 20
89.8853
 30
0.0
 11
1613.81
 21
87.7947
 31
0.0
  0
LINE
  8
0
 62
     250
 10
1613.81
 20
87.7947
 30
0.0
 11
1611.63
 21
86.0887
 31
0.0
  0
LINE
  8
0
 62
     250
 10
1611.63
 20
86.0887
 30
0.0
 11
1609.15
 21
84.8212
 31
0.0
  0
LINE
  8
0
 62
     250
 10
1609.15
 20
84.8212
 30
0.0
 11
1606.42
 21
84.0507
 31
0.0
  0
LINE
  8
0
 62
     250
 10
1606.42
 20
84.0507
 30
0.0
 11
1604.23
 21
83.8151
 31
0.0
  0
LINE
  8
0
 62
     250
 10
1604.23
 20
83.8151
 30
0.0
 11
1603.51
 21
83.8331
 31
0.0
  0
LINE
  8
0
 62
     250
 10
1420.55
 20
352.968
 30
0.0
 11
1420.51
 21
351.094
 31
0.0
  0
LINE
  8
0
 62
     250
 10
1420.51
 20
351.094
 30
0.0
 11
1420.41
 21
345.463
 31
0.0
  0
LINE
  8
0
 62
     250
 10
1420.41
 20
345.463
 30
0.0
 11
1420.35
 21
338.078
 31
0.0
  0
LINE
  8
0
 62
     250
 10
1420.35
 20
338.078
 30
0.0
 11
1420.38
 21
331.028
 31
0.0
  0
LINE
  8
0
 62
     250
 10
1420.38
 20
331.028
 30
0.0
 11
1420.47
 21
324.531
 31
0.0
  0
LINE
  8
0
 62
     250
 10
1420.47
 20
324.531
 30
0.0
 11
1420.62
 21
318.801
 31
0.0
  0
LINE
  8
0
 62
     250
 10
1420.62
 20
318.801
 30
0.0
 11
1420.83
 21
314.052
 31
0.0
  0
LINE
  8
0
 62
     250
 10
1420.83
 20
314.052
 30
0.0
 11
1421.06
 21
310.501
 31
0.0
  0
LINE
  8
0
 62
     250
 10
1421.06
 20
310.501
 30
0.0
 11
1421.23
 21
308.889
 31
0.0
  0
LINE
  8
0
 62
     250
 10
1421.23
 20
308.889
 30
0.0
 11
1421.33
 21
308.361
 31
0.0
  0
LINE
  8
0
 62
     250
 10
1421.33
 20
308.361
 30
0.0
 11
1421.45
 21
307.786
 31
0.0
  0
LINE
  8
0
 62
     250
 10
1421.45
 20
307.786
 30
0.0
 11
1422.39
 21
306.181
 31
0.0
  0
LINE
  8
0
 62
     250
 10
1422.39
 20
306.181
 30
0.0
 11
1424.16
 21
304.919
 31
0.0
  0
LINE
  8
0
 62
     250
 10
1424.16
 20
304.919
 30
0.0
 11
1426.14
 21
304.329
 31
0.0
  0
LINE
  8
0
 62
     250
 10
1426.14
 20
304.329
 30
0.0
 11
1427.45
 21
304.173
 31
0.0
  0
LINE
  8
0
 62
     250
 10
1427.45
 20
304.173
 30
0.0
 11
1427.88
 21
304.161
 31
0.0
  0
LINE
  8
0
 62
     250
 10
1427.88
 20
304.161
 30
0.0
 11
1428.29
 21
304.151
 31
0.0
  0
LINE
  8
0
 62
     250
 10
1428.29
 20
304.151
 30
0.0
 11
1429.53
 21
304.473
 31
0.0
  0
LINE
  8
0
 62
     250
 10
1429.53
 20
304.473
 30
0.0
 11
1431.39
 21
305.459
 31
0.0
  0
LINE
  8
0
 62
     250
 10
1431.39
 20
305.459
 30
0.0
 11
1433.15
 21
307.07
 31
0.0
  0
LINE
  8
0
 62
     250
 10
1433.15
 20
307.07
 30
0.0
 11
1434.27
 21
308.679
 31
0.0
  0
LINE
  8
0
 62
     250
 10
1434.27
 20
308.679
 30
0.0
 11
1434.54
 21
309.265
 31
0.0
  0
LINE
  8
0
 62
     250
 10
1434.54
 20
309.265
 30
0.0
 11
1434.77
 21
309.789
 31
0.0
  0
LINE
  8
0
 62
     250
 10
1434.77
 20
309.789
 30
0.0
 11
1435.35
 21
311.413
 31
0.0
  0
LINE
  8
0
 62
     250
 10
1435.35
 20
311.413
 30
0.0
 11
1436.58
 21
315.152
 31
0.0
  0
LINE
  8
0
 62
     250
 10
1436.58
 20
315.152
 30
0.0
 11
1438.07
 21
320.139
 31
0.0
  0
LINE
  8
0
 62
     250
 10
1438.07
 20
320.139
 30
0.0
 11
1439.66
 21
326.026
 31
0.0
  0
LINE
  8
0
 62
     250
 10
1439.66
 20
326.026
 30
0.0
 11
1441.2
 21
332.467
 31
0.0
  0
LINE
  8
0
 62
     250
 10
1441.2
 20
332.467
 30
0.0
 11
1442.54
 21
339.117
 31
0.0
  0
LINE
  8
0
 62
     250
 10
1442.54
 20
339.117
 30
0.0
 11
1443.52
 21
345.631
 31
0.0
  0
LINE
  8
0
 62
     250
 10
1443.52
 20
345.631
 30
0.0
 11
1443.94
 21
350.153
 31
0.0
  0
LINE
  8
0
 62
     250
 10
1443.94
 20
350.153
 30
0.0
 11
1443.98
 21
351.662
 31
0.0
  0
LINE
  8
0
 62
     250
 10
1443.98
 20
351.662
 30
0.0
 11
1443.99
 21
352.41
 31
0.0
  0
LINE
  8
0
 62
     250
 10
1443.99
 20
352.41
 30
0.0
 11
1443.96
 21
354.655
 31
0.0
  0
LINE
  8
0
 62
     250
 10
1443.96
 20
354.655
 30
0.0
 11
1443.77
 21
357.918
 31
0.0
  0
LINE
  8
0
 62
     250
 10
1443.77
 20
357.918
 30
0.0
 11
1443.44
 21
361.386
 31
0.0
  0
LINE
  8
0
 62
     250
 10
1443.44
 20
361.386
 30
0.0
 11
1442.98
 21
365.002
 31
0.0
  0
LINE
  8
0
 62
     250
 10
1442.98
 20
365.002
 30
0.0
 11
1442.42
 21
368.702
 31
0.0
  0
LINE
  8
0
 62
     250
 10
1442.42
 20
368.702
 30
0.0
 11
1441.78
 21
372.431
 31
0.0
  0
LINE
  8
0
 62
     250
 10
1441.78
 20
372.431
 30
0.0
 11
1441.08
 21
376.121
 31
0.0
  0
LINE
  8
0
 62
     250
 10
1441.08
 20
376.121
 30
0.0
 11
1440.34
 21
379.712
 31
0.0
  0
LINE
  8
0
 62
     250
 10
1440.34
 20
379.712
 30
0.0
 11
1439.58
 21
383.145
 31
0.0
  0
LINE
  8
0
 62
     250
 10
1439.58
 20
383.145
 30
0.0
 11
1438.83
 21
386.359
 31
0.0
  0
LINE
  8
0
 62
     250
 10
1438.83
 20
386.359
 30
0.0
 11
1438.1
 21
389.29
 31
0.0
  0
LINE
  8
0
 62
     250
 10
1438.1
 20
389.29
 30
0.0
 11
1437.41
 21
391.88
 31
0.0
  0
LINE
  8
0
 62
     250
 10
1437.41
 20
391.88
 30
0.0
 11
1436.8
 21
394.063
 31
0.0
  0
LINE
  8
0
 62
     250
 10
1436.8
 20
394.063
 30
0.0
 11
1436.29
 21
395.785
 31
0.0
  0
LINE
  8
0
 62
     250
 10
1436.29
 20
395.785
 30
0.0
 11
1435.88
 21
396.977
 31
0.0
  0
LINE
  8
0
 62
     250
 10
1435.88
 20
396.977
 30
0.0
 11
1435.69
 21
397.45
 31
0.0
  0
LINE
  8
0
 62
     250
 10
1435.69
 20
397.45
 30
0.0
 11
1435.6
 21
397.581
 31
0.0
  0
LINE
  8
0
 62
     250
 10
1435.6
 20
397.581
 30
0.0
 11
1435.38
 21
397.902
 31
0.0
  0
LINE
  8
0
 62
     250
 10
1435.38
 20
397.902
 30
0.0
 11
1434.7
 21
398.836
 31
0.0
  0
LINE
  8
0
 62
     250
 10
1434.7
 20
398.836
 30
0.0
 11
1433.48
 21
400.085
 31
0.0
  0
LINE
  8
0
 62
     250
 10
1433.48
 20
400.085
 30
0.0
 11
1431.79
 21
401.062
 31
0.0
  0
LINE
  8
0
 62
     250
 10
1431.79
 20
401.062
 30
0.0
 11
1430.04
 21
401.479
 31
0.0
  0
LINE
  8
0
 62
     250
 10
1430.04
 20
401.479
 30
0.0
 11
1429.46
 21
401.493
 31
0.0
  0
LINE
  8
0
 62
     250
 10
1429.46
 20
401.493
 30
0.0
 11
1429.12
 21
401.503
 31
0.0
  0
LINE
  8
0
 62
     250
 10
1429.12
 20
401.503
 30
0.0
 11
1428.08
 21
401.309
 31
0.0
  0
LINE
  8
0
 62
     250
 10
1428.08
 20
401.309
 30
0.0
 11
1426.7
 21
400.724
 31
0.0
  0
LINE
  8
0
 62
     250
 10
1426.7
 20
400.724
 30
0.0
 11
1425.37
 21
399.814
 31
0.0
  0
LINE
  8
0
 62
     250
 10
1425.37
 20
399.814
 30
0.0
 11
1424.14
 21
398.646
 31
0.0
  0
LINE
  8
0
 62
     250
 10
1424.14
 20
398.646
 30
0.0
 11
1423.08
 21
397.291
 31
0.0
  0
LINE
  8
0
 62
     250
 10
1423.08
 20
397.291
 30
0.0
 11
1422.24
 21
395.824
 31
0.0
  0
LINE
  8
0
 62
     250
 10
1422.24
 20
395.824
 30
0.0
 11
1421.68
 21
394.307
 31
0.0
  0
LINE
  8
0
 62
     250
 10
1421.68
 20
394.307
 30
0.0
 11
1421.47
 21
393.188
 31
0.0
  0
LINE
  8
0
 62
     250
 10
1421.47
 20
393.188
 30
0.0
 11
1421.46
 21
392.811
 31
0.0
  0
LINE
  8
0
 62
     250
 10
1421.46
 20
392.811
 30
0.0
 11
1421.45
 21
392.539
 31
0.0
  0
LINE
  8
0
 62
     250
 10
1421.45
 20
392.539
 30
0.0
 11
1421.43
 21
391.724
 31
0.0
  0
LINE
  8
0
 62
     250
 10
1421.43
 20
391.724
 30
0.0
 11
1421.39
 21
389.985
 31
0.0
  0
LINE
  8
0
 62
     250
 10
1421.39
 20
389.985
 30
0.0
 11
1421.34
 21
387.692
 31
0.0
  0
LINE
  8
0
 62
     250
 10
1421.34
 20
387.692
 30
0.0
 11
1421.27
 21
384.948
 31
0.0
  0
LINE
  8
0
 62
     250
 10
1421.27
 20
384.948
 30
0.0
 11
1421.2
 21
381.85
 31
0.0
  0
LINE
  8
0
 62
     250
 10
1421.2
 20
381.85
 30
0.0
 11
1421.13
 21
378.499
 31
0.0
  0
LINE
  8
0
 62
     250
 10
1421.13
 20
378.499
 30
0.0
 11
1421.05
 21
374.992
 31
0.0
  0
LINE
  8
0
 62
     250
 10
1421.05
 20
374.992
 30
0.0
 11
1420.97
 21
371.433
 31
0.0
  0
LINE
  8
0
 62
     250
 10
1420.97
 20
371.433
 30
0.0
 11
1420.89
 21
367.923
 31
0.0
  0
LINE
  8
0
 62
     250
 10
1420.89
 20
367.923
 30
0.0
 11
1420.81
 21
364.554
 31
0.0
  0
LINE
  8
0
 62
     250
 10
1420.81
 20
364.554
 30
0.0
 11
1420.75
 21
361.428
 31
0.0
  0
LINE
  8
0
 62
     250
 10
1420.75
 20
361.428
 30
0.0
 11
1420.68
 21
358.648
 31
0.0
  0
LINE
  8
0
 62
     250
 10
1420.68
 20
358.648
 30
0.0
 11
1420.63
 21
356.313
 31
0.0
  0
LINE
  8
0
 62
     250
 10
1420.63
 20
356.313
 30
0.0
 11
1420.59
 21
354.524
 31
0.0
  0
LINE
  8
0
 62
     250
 10
1420.59
 20
354.524
 30
0.0
 11
1420.57
 21
353.374
 31
0.0
  0
LINE
  8
0
 62
     250
 10
1420.57
 20
353.374
 30
0.0
 11
1420.55
 21
352.968
 31
0.0
  0
LINE
  8
0
 62
     250
 10
1420.55
 20
352.968
 30
0.0
 11
1420.55
 21
352.968
 31
0.0
  0
LINE
  8
0
 62
     250
 10
1408.97
 20
355.635
 30
0.0
 11
1408.92
 21
354.009
 31
0.0
  0
LINE
  8
0
 62
     250
 10
1408.92
 20
354.009
 30
0.0
 11
1408.9
 21
349.127
 31
0.0
  0
LINE
  8
0
 62
     250
 10
1408.9
 20
349.127
 30
0.0
 11
1408.98
 21
342.119
 31
0.0
  0
LINE
  8
0
 62
     250
 10
1408.98
 20
342.119
 30
0.0
 11
1409.2
 21
334.963
 31
0.0
  0
LINE
  8
0
 62
     250
 10
1409.2
 20
334.963
 30
0.0
 11
1409.51
 21
328.013
 31
0.0
  0
LINE
  8
0
 62
     250
 10
1409.51
 20
328.013
 30
0.0
 11
1409.9
 21
321.623
 31
0.0
  0
LINE
  8
0
 62
     250
 10
1409.9
 20
321.623
 30
0.0
 11
1410.34
 21
316.141
 31
0.0
  0
LINE
  8
0
 62
     250
 10
1410.34
 20
316.141
 30
0.0
 11
1410.79
 21
311.923
 31
0.0
  0
LINE
  8
0
 62
     250
 10
1410.79
 20
311.923
 30
0.0
 11
1411.07
 21
309.958
 31
0.0
  0
LINE
  8
0
 62
     250
 10
1411.07
 20
309.958
 30
0.0
 11
1411.22
 21
309.32
 31
0.0
  0
LINE
  8
0
 62
     250
 10
1411.22
 20
309.32
 30
0.0
 11
1411.34
 21
308.875
 31
0.0
  0
LINE
  8
0
 62
     250
 10
1411.34
 20
308.875
 30
0.0
 11
1411.86
 21
307.581
 31
0.0
  0
LINE
  8
0
 62
     250
 10
1411.86
 20
307.581
 30
0.0
 11
1412.87
 21
305.774
 31
0.0
  0
LINE
  8
0
 62
     250
 10
1412.87
 20
305.774
 30
0.0
 11
1414.2
 21
303.992
 31
0.0
  0
LINE
  8
0
 62
     250
 10
1414.2
 20
303.992
 30
0.0
 11
1415.8
 21
302.325
 31
0.0
  0
LINE
  8
0
 62
     250
 10
1415.8
 20
302.325
 30
0.0
 11
1417.59
 21
300.86
 31
0.0
  0
LINE
  8
0
 62
     250
 10
1417.59
 20
300.86
 30
0.0
 11
1419.52
 21
299.688
 31
0.0
  0
LINE
  8
0
 62
     250
 10
1419.52
 20
299.688
 30
0.0
 11
1421.54
 21
298.898
 31
0.0
  0
LINE
  8
0
 62
     250
 10
1421.54
 20
298.898
 30
0.0
 11
1423.06
 21
298.592
 31
0.0
  0
LINE
  8
0
 62
     250
 10
1423.06
 20
298.592
 30
0.0
 11
1423.57
 21
298.578
 31
0.0
  0
LINE
  8
0
 62
     250
 10
1423.57
 20
298.578
 30
0.0
 11
1424.56
 21
298.553
 31
0.0
  0
LINE
  8
0
 62
     250
 10
1424.56
 20
298.553
 30
0.0
 11
1427.5
 21
298.87
 31
0.0
  0
LINE
  8
0
 62
     250
 10
1427.5
 20
298.87
 30
0.0
 11
1431.06
 21
300.084
 31
0.0
  0
LINE
  8
0
 62
     250
 10
1431.06
 20
300.084
 30
0.0
 11
1434.03
 21
302.406
 31
0.0
  0
LINE
  8
0
 62
     250
 10
1434.03
 20
302.406
 30
0.0
 11
1435.86
 21
305.055
 31
0.0
  0
LINE
  8
0
 62
     250
 10
1435.86
 20
305.055
 30
0.0
 11
1436.26
 21
306.024
 31
0.0
  0
LINE
  8
0
 62
     250
 10
1436.26
 20
306.024
 30
0.0
 11
1436.56
 21
306.75
 31
0.0
  0
LINE
  8
0
 62
     250
 10
1436.56
 20
306.75
 30
0.0
 11
1437.32
 21
308.98
 31
0.0
  0
LINE
  8
0
 62
     250
 10
1437.32
 20
308.98
 30
0.0
 11
1438.65
 21
313.333
 31
0.0
  0
LINE
  8
0
 62
     250
 10
1438.65
 20
313.333
 30
0.0
 11
1440.12
 21
318.816
 31
0.0
  0
LINE
  8
0
 62
     250
 10
1440.12
 20
318.816
 30
0.0
 11
1441.62
 21
325.158
 31
0.0
  0
LINE
  8
0
 62
     250
 10
1441.62
 20
325.158
 30
0.0
 11
1443.03
 21
332.088
 31
0.0
  0
LINE
  8
0
 62
     250
 10
1443.03
 20
332.088
 30
0.0
 11
1444.23
 21
339.336
 31
0.0
  0
LINE
  8
0
 62
     250
 10
1444.23
 20
339.336
 30
0.0
 11
1445.12
 21
346.632
 31
0.0
  0
LINE
  8
0
 62
     250
 10
1445.12
 20
346.632
 30
0.0
 11
1445.51
 21
351.934
 31
0.0
  0
LINE
  8
0
 62
     250
 10
1445.51
 20
351.934
 30
0.0
 11
1445.56
 21
353.706
 31
0.0
  0
LINE
  8
0
 62
     250
 10
1445.56
 20
353.706
 30
0.0
 11
1445.6
 21
355.452
 31
0.0
  0
LINE
  8
0
 62
     250
 10
1445.6
 20
355.452
 30
0.0
 11
1445.42
 21
360.701
 31
0.0
  0
LINE
  8
0
 62
     250
 10
1445.42
 20
360.701
 30
0.0
 11
1444.76
 21
367.796
 31
0.0
  0
LINE
  8
0
 62
     250
 10
1444.76
 20
367.796
 30
0.0
 11
1443.69
 21
374.756
 31
0.0
  0
LINE
  8
0
 62
     250
 10
1443.69
 20
374.756
 30
0.0
 11
1442.36
 21
381.346
 31
0.0
  0
LINE
  8
0
 62
     250
 10
1442.36
 20
381.346
 30
0.0
 11
1440.89
 21
387.332
 31
0.0
  0
LINE
  8
0
 62
     250
 10
1440.89
 20
387.332
 30
0.0
 11
1439.43
 21
392.483
 31
0.0
  0
LINE
  8
0
 62
     250
 10
1439.43
 20
392.483
 30
0.0
 11
1438.1
 21
396.568
 31
0.0
  0
LINE
  8
0
 62
     250
 10
1438.1
 20
396.568
 30
0.0
 11
1437.33
 21
398.667
 31
0.0
  0
LINE
  8
0
 62
     250
 10
1437.33
 20
398.667
 30
0.0
 11
1437.03
 21
399.352
 31
0.0
  0
LINE
  8
0
 62
     250
 10
1437.03
 20
399.352
 30
0.0
 11
1436.61
 21
400.329
 31
0.0
  0
LINE
  8
0
 62
     250
 10
1436.61
 20
400.329
 30
0.0
 11
1434.84
 21
403.038
 31
0.0
  0
LINE
  8
0
 62
     250
 10
1434.84
 20
403.038
 30
0.0
 11
1431.9
 21
405.821
 31
0.0
  0
LINE
  8
0
 62
     250
 10
1431.9
 20
405.821
 30
0.0
 11
1428.35
 21
407.607
 31
0.0
  0
LINE
  8
0
 62
     250
 10
1428.35
 20
407.607
 30
0.0
 11
1425.36
 21
408.27
 31
0.0
  0
LINE
  8
0
 62
     250
 10
1425.36
 20
408.27
 30
0.0
 11
1424.36
 21
408.294
 31
0.0
  0
LINE
  8
0
 62
     250
 10
1424.36
 20
408.294
 30
0.0
 11
1423.85
 21
408.309
 31
0.0
  0
LINE
  8
0
 62
     250
 10
1423.85
 20
408.309
 30
0.0
 11
1422.29
 21
408.132
 31
0.0
  0
LINE
  8
0
 62
     250
 10
1422.29
 20
408.132
 30
0.0
 11
1420.27
 21
407.585
 31
0.0
  0
LINE
  8
0
 62
     250
 10
1420.27
 20
407.585
 30
0.0
 11
1418.35
 21
406.718
 31
0.0
  0
LINE
  8
0
 62
     250
 10
1418.35
 20
406.718
 30
0.0
 11
1416.59
 21
405.599
 31
0.0
  0
LINE
  8
0
 62
     250
 10
1416.59
 20
405.599
 30
0.0
 11
1415.03
 21
404.301
 31
0.0
  0
LINE
  8
0
 62
     250
 10
1415.03
 20
404.301
 30
0.0
 11
1413.72
 21
402.89
 31
0.0
  0
LINE
  8
0
 62
     250
 10
1413.72
 20
402.89
 30
0.0
 11
1412.72
 21
401.436
 31
0.0
  0
LINE
  8
0
 62
     250
 10
1412.72
 20
401.436
 30
0.0
 11
1412.19
 21
400.375
 31
0.0
  0
LINE
  8
0
 62
     250
 10
1412.19
 20
400.375
 30
0.0
 11
1412.07
 21
400.004
 31
0.0
  0
LINE
  8
0
 62
     250
 10
1412.07
 20
400.004
 30
0.0
 11
1411.99
 21
399.736
 31
0.0
  0
LINE
  8
0
 62
     250
 10
1411.99
 20
399.736
 30
0.0
 11
1411.84
 21
398.893
 31
0.0
  0
LINE
  8
0
 62
     250
 10
1411.84
 20
398.893
 30
0.0
 11
1411.59
 21
397.03
 31
0.0
  0
LINE
  8
0
 62
     250
 10
1411.59
 20
397.03
 30
0.0
 11
1411.34
 21
394.529
 31
0.0
  0
LINE
  8
0
 62
     250
 10
1411.34
 20
394.529
 30
0.0
 11
1411.08
 21
391.502
 31
0.0
  0
LINE
  8
0
 62
     250
 10
1411.08
 20
391.502
 30
0.0
 11
1410.81
 21
388.066
 31
0.0
  0
LINE
  8
0
 62
     250
 10
1410.81
 20
388.066
 30
0.0
 11
1410.56
 21
384.334
 31
0.0
  0
LINE
  8
0
 62
     250
 10
1410.56
 20
384.334
 30
0.0
 11
1410.31
 21
380.414
 31
0.0
  0
LINE
  8
0
 62
     250
 10
1410.31
 20
380.414
 30
0.0
 11
1410.07
 21
376.428
 31
0.0
  0
LINE
  8
0
 62
     250
 10
1410.07
 20
376.428
 30
0.0
 11
1409.84
 21
372.48
 31
0.0
  0
LINE
  8
0
 62
     250
 10
1409.84
 20
372.48
 30
0.0
 11
1409.63
 21
368.695
 31
0.0
  0
LINE
  8
0
 62
     250
 10
1409.63
 20
368.695
 30
0.0
 11
1409.44
 21
365.178
 31
0.0
  0
LINE
  8
0
 62
     250
 10
1409.44
 20
365.178
 30
0.0
 11
1409.28
 21
362.045
 31
0.0
  0
LINE
  8
0
 62
     250
 10
1409.28
 20
362.045
 30
0.0
 11
1409.15
 21
359.414
 31
0.0
  0
LINE
  8
0
 62
     250
 10
1409.15
 20
359.414
 30
0.0
 11
1409.05
 21
357.389
 31
0.0
  0
LINE
  8
0
 62
     250
 10
1409.05
 20
357.389
 30
0.0
 11
1408.99
 21
356.094
 31
0.0
  0
LINE
  8
0
 62
     250
 10
1408.99
 20
356.094
 30
0.0
 11
1408.97
 21
355.635
 31
0.0
  0
LINE
  8
0
 62
     250
 10
1408.97
 20
355.635
 30
0.0
 11
1408.97
 21
355.635
 31
0.0
  0
LINE
  8
0
 62
     250
 10
1636.28
 20
307.588
 30
0.0
 11
1635.19
 21
307.617
 31
0.0
  0
LINE
  8
0
 62
     250
 10
1635.19
 20
307.617
 30
0.0
 11
1631.92
 21
307.925
 31
0.0
  0
LINE
  8
0
 62
     250
 10
1631.92
 20
307.925
 30
0.0
 11
1627.7
 21
308.689
 31
0.0
  0
LINE
  8
0
 62
     250
 10
1627.7
 20
308.689
 30
0.0
 11
1623.63
 21
309.856
 31
0.0
  0
LINE
  8
0
 62
     250
 10
1623.63
 20
309.856
 30
0.0
 11
1619.74
 21
311.406
 31
0.0
  0
LINE
  8
0
 62
     250
 10
1619.74
 20
311.406
 30
0.0
 11
1616.06
 21
313.316
 31
0.0
  0
LINE
  8
0
 62
     250
 10
1616.06
 20
313.316
 30
0.0
 11
1612.59
 21
315.564
 31
0.0
  0
LINE
  8
0
 62
     250
 10
1612.59
 20
315.564
 30
0.0
 11
1609.37
 21
318.127
 31
0.0
  0
LINE
  8
0
 62
     250
 10
1609.37
 20
318.127
 30
0.0
 11
1606.41
 21
320.985
 31
0.0
  0
LINE
  8
0
 62
     250
 10
1606.41
 20
320.985
 30
0.0
 11
1603.73
 21
324.113
 31
0.0
  0
LINE
  8
0
 62
     250
 10
1603.73
 20
324.113
 30
0.0
 11
1601.36
 21
327.489
 31
0.0
  0
LINE
  8
0
 62
     250
 10
1601.36
 20
327.489
 30
0.0
 11
1599.31
 21
331.094
 31
0.0
  0
LINE
  8
0
 62
     250
 10
1599.31
 20
331.094
 30
0.0
 11
1597.61
 21
334.903
 31
0.0
  0
LINE
  8
0
 62
     250
 10
1597.61
 20
334.903
 30
0.0
 11
1596.28
 21
338.894
 31
0.0
  0
LINE
  8
0
 62
     250
 10
1596.28
 20
338.894
 30
0.0
 11
1595.34
 21
343.046
 31
0.0
  0
LINE
  8
0
 62
     250
 10
1595.34
 20
343.046
 30
0.0
 11
1594.8
 21
347.336
 31
0.0
  0
LINE
  8
0
 62
     250
 10
1594.8
 20
347.336
 30
0.0
 11
1594.66
 21
350.642
 31
0.0
  0
LINE
  8
0
 62
     250
 10
1594.66
 20
350.642
 30
0.0
 11
1594.69
 21
351.74
 31
0.0
  0
LINE
  8
0
 62
     250
 10
1594.69
 20
351.74
 30
0.0
 11
1594.72
 21
352.841
 31
0.0
  0
LINE
  8
0
 62
     250
 10
1594.72
 20
352.841
 30
0.0
 11
1595.03
 21
356.136
 31
0.0
  0
LINE
  8
0
 62
     250
 10
1595.03
 20
356.136
 30
0.0
 11
1595.79
 21
360.391
 31
0.0
  0
LINE
  8
0
 62
     250
 10
1595.79
 20
360.391
 30
0.0
 11
1596.95
 21
364.486
 31
0.0
  0
LINE
  8
0
 62
     250
 10
1596.95
 20
364.486
 30
0.0
 11
1598.49
 21
368.402
 31
0.0
  0
LINE
  8
0
 62
     250
 10
1598.49
 20
368.402
 30
0.0
 11
1600.38
 21
372.117
 31
0.0
  0
LINE
  8
0
 62
     250
 10
1600.38
 20
372.117
 30
0.0
 11
1602.62
 21
375.61
 31
0.0
  0
LINE
  8
0
 62
     250
 10
1602.62
 20
375.61
 30
0.0
 11
1605.16
 21
378.859
 31
0.0
  0
LINE
  8
0
 62
     250
 10
1605.16
 20
378.859
 30
0.0
 11
1608
 21
381.84
 31
0.0
  0
LINE
  8
0
 62
     250
 10
1608
 20
381.84
 30
0.0
 11
1611.1
 21
384.538
 31
0.0
  0
LINE
  8
0
 62
     250
 10
1611.1
 20
384.538
 30
0.0
 11
1614.46
 21
386.93
 31
0.0
  0
LINE
  8
0
 62
     250
 10
1614.46
 20
386.93
 30
0.0
 11
1618.04
 21
388.994
 31
0.0
  0
LINE
  8
0
 62
     250
 10
1618.04
 20
388.994
 30
0.0
 11
1621.82
 21
390.708
 31
0.0
  0
LINE
  8
0
 62
     250
 10
1621.82
 20
390.708
 30
0.0
 11
1625.78
 21
392.049
 31
0.0
  0
LINE
  8
0
 62
     250
 10
1625.78
 20
392.049
 30
0.0
 11
1629.9
 21
393.005
 31
0.0
  0
LINE
  8
0
 62
     250
 10
1629.9
 20
393.005
 30
0.0
 11
1634.16
 21
393.545
 31
0.0
  0
LINE
  8
0
 62
     250
 10
1634.16
 20
393.545
 30
0.0
 11
1637.44
 21
393.682
 31
0.0
  0
LINE
  8
0
 62
     250
 10
1637.44
 20
393.682
 30
0.0
 11
1638.53
 21
393.651
 31
0.0
  0
LINE
  8
0
 62
     250
 10
1638.53
 20
393.651
 30
0.0
 11
1639.63
 21
393.626
 31
0.0
  0
LINE
  8
0
 62
     250
 10
1639.63
 20
393.626
 30
0.0
 11
1642.9
 21
393.315
 31
0.0
  0
LINE
  8
0
 62
     250
 10
1642.9
 20
393.315
 30
0.0
 11
1647.12
 21
392.553
 31
0.0
  0
LINE
  8
0
 62
     250
 10
1647.12
 20
392.553
 30
0.0
 11
1651.18
 21
391.386
 31
0.0
  0
LINE
  8
0
 62
     250
 10
1651.18
 20
391.386
 30
0.0
 11
1655.07
 21
389.837
 31
0.0
  0
LINE
  8
0
 62
     250
 10
1655.07
 20
389.837
 30
0.0
 11
1658.76
 21
387.925
 31
0.0
  0
LINE
  8
0
 62
     250
 10
1658.76
 20
387.925
 30
0.0
 11
1662.23
 21
385.678
 31
0.0
  0
LINE
  8
0
 62
     250
 10
1662.23
 20
385.678
 30
0.0
 11
1665.45
 21
383.113
 31
0.0
  0
LINE
  8
0
 62
     250
 10
1665.45
 20
383.113
 30
0.0
 11
1668.41
 21
380.256
 31
0.0
  0
LINE
  8
0
 62
     250
 10
1668.41
 20
380.256
 30
0.0
 11
1671.08
 21
377.13
 31
0.0
  0
LINE
  8
0
 62
     250
 10
1671.08
 20
377.13
 30
0.0
 11
1673.46
 21
373.754
 31
0.0
  0
LINE
  8
0
 62
     250
 10
1673.46
 20
373.754
 30
0.0
 11
1675.5
 21
370.149
 31
0.0
  0
LINE
  8
0
 62
     250
 10
1675.5
 20
370.149
 30
0.0
 11
1677.2
 21
366.339
 31
0.0
  0
LINE
  8
0
 62
     250
 10
1677.2
 20
366.339
 30
0.0
 11
1678.54
 21
362.349
 31
0.0
  0
LINE
  8
0
 62
     250
 10
1678.54
 20
362.349
 30
0.0
 11
1679.48
 21
358.196
 31
0.0
  0
LINE
  8
0
 62
     250
 10
1679.48
 20
358.196
 30
0.0
 11
1680.02
 21
353.907
 31
0.0
  0
LINE
  8
0
 62
     250
 10
1680.02
 20
353.907
 30
0.0
 11
1680.15
 21
350.6
 31
0.0
  0
LINE
  8
0
 62
     250
 10
1680.15
 20
350.6
 30
0.0
 11
1680.12
 21
349.501
 31
0.0
  0
LINE
  8
0
 62
     250
 10
1680.12
 20
349.501
 30
0.0
 11
1680.09
 21
348.401
 31
0.0
  0
LINE
  8
0
 62
     250
 10
1680.09
 20
348.401
 30
0.0
 11
1679.79
 21
345.108
 31
0.0
  0
LINE
  8
0
 62
     250
 10
1679.79
 20
345.108
 30
0.0
 11
1679.03
 21
340.852
 31
0.0
  0
LINE
  8
0
 62
     250
 10
1679.03
 20
340.852
 30
0.0
 11
1677.87
 21
336.755
 31
0.0
  0
LINE
  8
0
 62
     250
 10
1677.87
 20
336.755
 30
0.0
 11
1676.33
 21
332.839
 31
0.0
  0
LINE
  8
0
 62
     250
 10
1676.33
 20
332.839
 30
0.0
 11
1674.43
 21
329.125
 31
0.0
  0
LINE
  8
0
 62
     250
 10
1674.43
 20
329.125
 30
0.0
 11
1672.2
 21
325.633
 31
0.0
  0
LINE
  8
0
 62
     250
 10
1672.2
 20
325.633
 30
0.0
 11
1669.65
 21
322.385
 31
0.0
  0
LINE
  8
0
 62
     250
 10
1669.65
 20
322.385
 30
0.0
 11
1666.82
 21
319.402
 31
0.0
  0
LINE
  8
0
 62
     250
 10
1666.82
 20
319.402
 30
0.0
 11
1663.71
 21
316.703
 31
0.0
  0
LINE
  8
0
 62
     250
 10
1663.71
 20
316.703
 30
0.0
 11
1660.36
 21
314.313
 31
0.0
  0
LINE
  8
0
 62
     250
 10
1660.36
 20
314.313
 30
0.0
 11
1656.78
 21
312.25
 31
0.0
  0
LINE
  8
0
 62
     250
 10
1656.78
 20
312.25
 30
0.0
 11
1653
 21
310.535
 31
0.0
  0
LINE
  8
0
 62
     250
 10
1653
 20
310.535
 30
0.0
 11
1649.04
 21
309.19
 31
0.0
  0
LINE
  8
0
 62
     250
 10
1649.04
 20
309.19
 30
0.0
 11
1644.91
 21
308.237
 31
0.0
  0
LINE
  8
0
 62
     250
 10
1644.91
 20
308.237
 30
0.0
 11
1640.66
 21
307.697
 31
0.0
  0
LINE
  8
0
 62
     250
 10
1640.66
 20
307.697
 30
0.0
 11
1637.38
 21
307.56
 31
0.0
  0
LINE
  8
0
 62
     250
 10
1637.38
 20
307.56
 30
0.0
 11
1636.28
 21
307.588
 31
0.0
  0
LINE
  8
0
 62
     250
 10
1635.17
 20
310.087
 30
0.0
 11
1634.08
 21
310.116
 31
0.0
  0
LINE
  8
0
 62
     250
 10
1634.08
 20
310.116
 30
0.0
 11
1630.81
 21
310.425
 31
0.0
  0
LINE
  8
0
 62
     250
 10
1630.81
 20
310.425
 30
0.0
 11
1626.59
 21
311.188
 31
0.0
  0
LINE
  8
0
 62
     250
 10
1626.59
 20
311.188
 30
0.0
 11
1622.52
 21
312.356
 31
0.0
  0
LINE
  8
0
 62
     250
 10
1622.52
 20
312.356
 30
0.0
 11
1618.63
 21
313.906
 31
0.0
  0
LINE
  8
0
 62
     250
 10
1618.63
 20
313.906
 30
0.0
 11
1614.95
 21
315.816
 31
0.0
  0
LINE
  8
0
 62
     250
 10
1614.95
 20
315.816
 30
0.0
 11
1611.48
 21
318.064
 31
0.0
  0
LINE
  8
0
 62
     250
 10
1611.48
 20
318.064
 30
0.0
 11
1608.26
 21
320.627
 31
0.0
  0
LINE
  8
0
 62
     250
 10
1608.26
 20
320.627
 30
0.0
 11
1605.3
 21
323.483
 31
0.0
  0
LINE
  8
0
 62
     250
 10
1605.3
 20
323.483
 30
0.0
 11
1602.62
 21
326.612
 31
0.0
  0
LINE
  8
0
 62
     250
 10
1602.62
 20
326.612
 30
0.0
 11
1600.25
 21
329.989
 31
0.0
  0
LINE
  8
0
 62
     250
 10
1600.25
 20
329.989
 30
0.0
 11
1598.2
 21
333.593
 31
0.0
  0
LINE
  8
0
 62
     250
 10
1598.2
 20
333.593
 30
0.0
 11
1596.5
 21
337.402
 31
0.0
  0
LINE
  8
0
 62
     250
 10
1596.5
 20
337.402
 30
0.0
 11
1595.17
 21
341.394
 31
0.0
  0
LINE
  8
0
 62
     250
 10
1595.17
 20
341.394
 30
0.0
 11
1594.22
 21
345.544
 31
0.0
  0
LINE
  8
0
 62
     250
 10
1594.22
 20
345.544
 30
0.0
 11
1593.69
 21
349.834
 31
0.0
  0
LINE
  8
0
 62
     250
 10
1593.69
 20
349.834
 30
0.0
 11
1593.55
 21
353.141
 31
0.0
  0
LINE
  8
0
 62
     250
 10
1593.55
 20
353.141
 30
0.0
 11
1593.59
 21
354.238
 31
0.0
  0
LINE
  8
0
 62
     250
 10
1593.59
 20
354.238
 30
0.0
 11
1593.61
 21
355.342
 31
0.0
  0
LINE
  8
0
 62
     250
 10
1593.61
 20
355.342
 30
0.0
 11
1593.92
 21
358.634
 31
0.0
  0
LINE
  8
0
 62
     250
 10
1593.92
 20
358.634
 30
0.0
 11
1594.68
 21
362.888
 31
0.0
  0
LINE
  8
0
 62
     250
 10
1594.68
 20
362.888
 30
0.0
 11
1595.84
 21
366.988
 31
0.0
  0
LINE
  8
0
 62
     250
 10
1595.84
 20
366.988
 30
0.0
 11
1597.38
 21
370.904
 31
0.0
  0
LINE
  8
0
 62
     250
 10
1597.38
 20
370.904
 30
0.0
 11
1599.28
 21
374.618
 31
0.0
  0
LINE
  8
0
 62
     250
 10
1599.28
 20
374.618
 30
0.0
 11
1601.51
 21
378.107
 31
0.0
  0
LINE
  8
0
 62
     250
 10
1601.51
 20
378.107
 30
0.0
 11
1604.05
 21
381.356
 31
0.0
  0
LINE
  8
0
 62
     250
 10
1604.05
 20
381.356
 30
0.0
 11
1606.89
 21
384.341
 31
0.0
  0
LINE
  8
0
 62
     250
 10
1606.89
 20
384.341
 30
0.0
 11
1610
 21
387.04
 31
0.0
  0
LINE
  8
0
 62
     250
 10
1610
 20
387.04
 30
0.0
 11
1613.35
 21
389.428
 31
0.0
  0
LINE
  8
0
 62
     250
 10
1613.35
 20
389.428
 30
0.0
 11
1616.93
 21
391.492
 31
0.0
  0
LINE
  8
0
 62
     250
 10
1616.93
 20
391.492
 30
0.0
 11
1620.71
 21
393.206
 31
0.0
  0
LINE
  8
0
 62
     250
 10
1620.71
 20
393.206
 30
0.0
 11
1624.67
 21
394.55
 31
0.0
  0
LINE
  8
0
 62
     250
 10
1624.67
 20
394.55
 30
0.0
 11
1628.79
 21
395.503
 31
0.0
  0
LINE
  8
0
 62
     250
 10
1628.79
 20
395.503
 30
0.0
 11
1633.05
 21
396.042
 31
0.0
  0
LINE
  8
0
 62
     250
 10
1633.05
 20
396.042
 30
0.0
 11
1636.33
 21
396.18
 31
0.0
  0
LINE
  8
0
 62
     250
 10
1636.33
 20
396.18
 30
0.0
 11
1637.43
 21
396.152
 31
0.0
  0
LINE
  8
0
 62
     250
 10
1637.43
 20
396.152
 30
0.0
 11
1638.52
 21
396.124
 31
0.0
  0
LINE
  8
0
 62
     250
 10
1638.52
 20
396.124
 30
0.0
 11
1641.79
 21
395.817
 31
0.0
  0
LINE
  8
0
 62
     250
 10
1641.79
 20
395.817
 30
0.0
 11
1646.01
 21
395.051
 31
0.0
  0
LINE
  8
0
 62
     250
 10
1646.01
 20
395.051
 30
0.0
 11
1650.08
 21
393.883
 31
0.0
  0
LINE
  8
0
 62
     250
 10
1650.08
 20
393.883
 30
0.0
 11
1653.96
 21
392.335
 31
0.0
  0
LINE
  8
0
 62
     250
 10
1653.96
 20
392.335
 30
0.0
 11
1657.65
 21
390.423
 31
0.0
  0
LINE
  8
0
 62
     250
 10
1657.65
 20
390.423
 30
0.0
 11
1661.11
 21
388.175
 31
0.0
  0
LINE
  8
0
 62
     250
 10
1661.11
 20
388.175
 30
0.0
 11
1664.34
 21
385.614
 31
0.0
  0
LINE
  8
0
 62
     250
 10
1664.34
 20
385.614
 30
0.0
 11
1667.3
 21
382.757
 31
0.0
  0
LINE
  8
0
 62
     250
 10
1667.3
 20
382.757
 30
0.0
 11
1669.98
 21
379.628
 31
0.0
  0
LINE
  8
0
 62
     250
 10
1669.98
 20
379.628
 30
0.0
 11
1672.35
 21
376.252
 31
0.0
  0
LINE
  8
0
 62
     250
 10
1672.35
 20
376.252
 30
0.0
 11
1674.4
 21
372.646
 31
0.0
  0
LINE
  8
0
 62
     250
 10
1674.4
 20
372.646
 30
0.0
 11
1676.1
 21
368.84
 31
0.0
  0
LINE
  8
0
 62
     250
 10
1676.1
 20
368.84
 30
0.0
 11
1677.43
 21
364.846
 31
0.0
  0
LINE
  8
0
 62
     250
 10
1677.43
 20
364.846
 30
0.0
 11
1678.37
 21
360.698
 31
0.0
  0
LINE
  8
0
 62
     250
 10
1678.37
 20
360.698
 30
0.0
 11
1678.91
 21
356.408
 31
0.0
  0
LINE
  8
0
 62
     250
 10
1678.91
 20
356.408
 30
0.0
 11
1679.04
 21
353.099
 31
0.0
  0
LINE
  8
0
 62
     250
 10
1679.04
 20
353.099
 30
0.0
 11
1679.01
 21
352.001
 31
0.0
  0
LINE
  8
0
 62
     250
 10
1679.01
 20
352.001
 30
0.0
 11
1678.99
 21
350.901
 31
0.0
  0
LINE
  8
0
 62
     250
 10
1678.99
 20
350.901
 30
0.0
 11
1678.68
 21
347.607
 31
0.0
  0
LINE
  8
0
 62
     250
 10
1678.68
 20
347.607
 30
0.0
 11
1677.92
 21
343.352
 31
0.0
  0
LINE
  8
0
 62
     250
 10
1677.92
 20
343.352
 30
0.0
 11
1676.76
 21
339.255
 31
0.0
  0
LINE
  8
0
 62
     250
 10
1676.76
 20
339.255
 30
0.0
 11
1675.22
 21
335.339
 31
0.0
  0
LINE
  8
0
 62
     250
 10
1675.22
 20
335.339
 30
0.0
 11
1673.32
 21
331.625
 31
0.0
  0
LINE
  8
0
 62
     250
 10
1673.32
 20
331.625
 30
0.0
 11
1671.09
 21
328.133
 31
0.0
  0
LINE
  8
0
 62
     250
 10
1671.09
 20
328.133
 30
0.0
 11
1668.54
 21
324.885
 31
0.0
  0
LINE
  8
0
 62
     250
 10
1668.54
 20
324.885
 30
0.0
 11
1665.71
 21
321.9
 31
0.0
  0
LINE
  8
0
 62
     250
 10
1665.71
 20
321.9
 30
0.0
 11
1662.6
 21
319.203
 31
0.0
  0
LINE
  8
0
 62
     250
 10
1662.6
 20
319.203
 30
0.0
 11
1659.25
 21
316.811
 31
0.0
  0
LINE
  8
0
 62
     250
 10
1659.25
 20
316.811
 30
0.0
 11
1655.67
 21
314.748
 31
0.0
  0
LINE
  8
0
 62
     250
 10
1655.67
 20
314.748
 30
0.0
 11
1651.89
 21
313.034
 31
0.0
  0
LINE
  8
0
 62
     250
 10
1651.89
 20
313.034
 30
0.0
 11
1647.93
 21
311.69
 31
0.0
  0
LINE
  8
0
 62
     250
 10
1647.93
 20
311.69
 30
0.0
 11
1643.8
 21
310.737
 31
0.0
  0
LINE
  8
0
 62
     250
 10
1643.8
 20
310.737
 30
0.0
 11
1639.55
 21
310.196
 31
0.0
  0
LINE
  8
0
 62
     250
 10
1639.55
 20
310.196
 30
0.0
 11
1636.26
 21
310.06
 31
0.0
  0
LINE
  8
0
 62
     250
 10
1636.26
 20
310.06
 30
0.0
 11
1635.17
 21
310.087
 31
0.0
  0
LINE
  8
0
 62
     250
 10
1632.45
 20
320.697
 30
0.0
 11
1630.88
 21
320.738
 31
0.0
  0
LINE
  8
0
 62
     250
 10
1630.88
 20
320.738
 30
0.0
 11
1626.18
 21
321.517
 31
0.0
  0
LINE
  8
0
 62
     250
 10
1626.18
 20
321.517
 30
0.0
 11
1620.37
 21
323.547
 31
0.0
  0
LINE
  8
0
 62
     250
 10
1620.37
 20
323.547
 30
0.0
 11
1615.15
 21
326.656
 31
0.0
  0
LINE
  8
0
 62
     250
 10
1615.15
 20
326.656
 30
0.0
 11
1610.63
 21
330.708
 31
0.0
  0
LINE
  8
0
 62
     250
 10
1610.63
 20
330.708
 30
0.0
 11
1606.95
 21
335.576
 31
0.0
  0
LINE
  8
0
 62
     250
 10
1606.95
 20
335.576
 30
0.0
 11
1604.21
 21
341.121
 31
0.0
  0
LINE
  8
0
 62
     250
 10
1604.21
 20
341.121
 30
0.0
 11
1602.55
 21
347.214
 31
0.0
  0
LINE
  8
0
 62
     250
 10
1602.55
 20
347.214
 30
0.0
 11
1602.05
 21
352.098
 31
0.0
  0
LINE
  8
0
 62
     250
 10
1602.05
 20
352.098
 30
0.0
 11
1602.09
 21
353.72
 31
0.0
  0
LINE
  8
0
 62
     250
 10
1602.09
 20
353.72
 30
0.0
 11
1602.13
 21
355.342
 31
0.0
  0
LINE
  8
0
 62
     250
 10
1602.13
 20
355.342
 30
0.0
 11
1602.89
 21
360.193
 31
0.0
  0
LINE
  8
0
 62
     250
 10
1602.89
 20
360.193
 30
0.0
 11
1604.87
 21
366.19
 31
0.0
  0
LINE
  8
0
 62
     250
 10
1604.87
 20
366.19
 30
0.0
 11
1607.89
 21
371.588
 31
0.0
  0
LINE
  8
0
 62
     250
 10
1607.89
 20
371.588
 30
0.0
 11
1611.82
 21
376.252
 31
0.0
  0
LINE
  8
0
 62
     250
 10
1611.82
 20
376.252
 30
0.0
 11
1616.54
 21
380.065
 31
0.0
  0
LINE
  8
0
 62
     250
 10
1616.54
 20
380.065
 30
0.0
 11
1621.92
 21
382.894
 31
0.0
  0
LINE
  8
0
 62
     250
 10
1621.92
 20
382.894
 30
0.0
 11
1627.83
 21
384.616
 31
0.0
  0
LINE
  8
0
 62
     250
 10
1627.83
 20
384.616
 30
0.0
 11
1632.56
 21
385.149
 31
0.0
  0
LINE
  8
0
 62
     250
 10
1632.56
 20
385.149
 30
0.0
 11
1634.14
 21
385.106
 31
0.0
  0
LINE
  8
0
 62
     250
 10
1634.14
 20
385.106
 30
0.0
 11
1635.71
 21
385.068
 31
0.0
  0
LINE
  8
0
 62
     250
 10
1635.71
 20
385.068
 30
0.0
 11
1640.41
 21
384.288
 31
0.0
  0
LINE
  8
0
 62
     250
 10
1640.41
 20
384.288
 30
0.0
 11
1646.22
 21
382.259
 31
0.0
  0
LINE
  8
0
 62
     250
 10
1646.22
 20
382.259
 30
0.0
 11
1651.44
 21
379.148
 31
0.0
  0
LINE
  8
0
 62
     250
 10
1651.44
 20
379.148
 30
0.0
 11
1655.95
 21
375.098
 31
0.0
  0
LINE
  8
0
 62
     250
 10
1655.95
 20
375.098
 30
0.0
 11
1659.64
 21
370.23
 31
0.0
  0
LINE
  8
0
 62
     250
 10
1659.64
 20
370.23
 30
0.0
 11
1662.37
 21
364.684
 31
0.0
  0
LINE
  8
0
 62
     250
 10
1662.37
 20
364.684
 30
0.0
 11
1664.04
 21
358.592
 31
0.0
  0
LINE
  8
0
 62
     250
 10
1664.04
 20
358.592
 30
0.0
 11
1664.54
 21
353.709
 31
0.0
  0
LINE
  8
0
 62
     250
 10
1664.54
 20
353.709
 30
0.0
 11
1664.5
 21
352.085
 31
0.0
  0
LINE
  8
0
 62
     250
 10
1664.5
 20
352.085
 30
0.0
 11
1664.45
 21
350.463
 31
0.0
  0
LINE
  8
0
 62
     250
 10
1664.45
 20
350.463
 30
0.0
 11
1663.69
 21
345.612
 31
0.0
  0
LINE
  8
0
 62
     250
 10
1663.69
 20
345.612
 30
0.0
 11
1661.72
 21
339.614
 31
0.0
  0
LINE
  8
0
 62
     250
 10
1661.72
 20
339.614
 30
0.0
 11
1658.7
 21
334.218
 31
0.0
  0
LINE
  8
0
 62
     250
 10
1658.7
 20
334.218
 30
0.0
 11
1654.76
 21
329.552
 31
0.0
  0
LINE
  8
0
 62
     250
 10
1654.76
 20
329.552
 30
0.0
 11
1650.04
 21
325.741
 31
0.0
  0
LINE
  8
0
 62
     250
 10
1650.04
 20
325.741
 30
0.0
 11
1644.66
 21
322.91
 31
0.0
  0
LINE
  8
0
 62
     250
 10
1644.66
 20
322.91
 30
0.0
 11
1638.76
 21
321.188
 31
0.0
  0
LINE
  8
0
 62
     250
 10
1638.76
 20
321.188
 30
0.0
 11
1634.02
 21
320.657
 31
0.0
  0
LINE
  8
0
 62
     250
 10
1634.02
 20
320.657
 30
0.0
 11
1632.45
 21
320.697
 31
0.0
  0
LINE
  8
0
 62
     250
 10
1789.3
 20
335.104
 30
0.0
 11
1789.83
 21
334.561
 31
0.0
  0
LINE
  8
0
 62
     250
 10
1789.83
 20
334.561
 30
0.0
 11
1791.51
 21
333.017
 31
0.0
  0
LINE
  8
0
 62
     250
 10
1791.51
 20
333.017
 30
0.0
 11
1794.34
 21
330.604
 31
0.0
  0
LINE
  8
0
 62
     250
 10
1794.34
 20
330.604
 30
0.0
 11
1797.54
 21
328.035
 31
0.0
  0
LINE
  8
0
 62
     250
 10
1797.54
 20
328.035
 30
0.0
 11
1800.86
 21
325.479
 31
0.0
  0
LINE
  8
0
 62
     250
 10
1800.86
 20
325.479
 30
0.0
 11
1804.07
 21
323.1
 31
0.0
  0
LINE
  8
0
 62
     250
 10
1804.07
 20
323.1
 30
0.0
 11
1806.91
 21
321.068
 31
0.0
  0
LINE
  8
0
 62
     250
 10
1806.91
 20
321.068
 30
0.0
 11
1809.14
 21
319.549
 31
0.0
  0
LINE
  8
0
 62
     250
 10
1809.14
 20
319.549
 30
0.0
 11
1810.17
 21
318.895
 31
0.0
  0
LINE
  8
0
 62
     250
 10
1810.17
 20
318.895
 30
0.0
 11
1810.53
 21
318.713
 31
0.0
  0
LINE
  8
0
 62
     250
 10
1810.53
 20
318.713
 30
0.0
 11
1810.97
 21
318.488
 31
0.0
  0
LINE
  8
0
 62
     250
 10
1810.97
 20
318.488
 30
0.0
 11
1812.49
 21
318.148
 31
0.0
  0
LINE
  8
0
 62
     250
 10
1812.49
 20
318.148
 30
0.0
 11
1814.8
 21
318.341
 31
0.0
  0
LINE
  8
0
 62
     250
 10
1814.8
 20
318.341
 30
0.0
 11
1817.32
 21
319.492
 31
0.0
  0
LINE
  8
0
 62
     250
 10
1817.32
 20
319.492
 30
0.0
 11
1819.34
 21
321.153
 31
0.0
  0
LINE
  8
0
 62
     250
 10
1819.34
 20
321.153
 30
0.0
 11
1819.9
 21
321.801
 31
0.0
  0
LINE
  8
0
 62
     250
 10
1819.9
 20
321.801
 30
0.0
 11
1820.27
 21
322.223
 31
0.0
  0
LINE
  8
0
 62
     250
 10
1820.27
 20
322.223
 30
0.0
 11
1821.22
 21
323.616
 31
0.0
  0
LINE
  8
0
 62
     250
 10
1821.22
 20
323.616
 30
0.0
 11
1822.57
 21
326.08
 31
0.0
  0
LINE
  8
0
 62
     250
 10
1822.57
 20
326.08
 30
0.0
 11
1823.89
 21
329.153
 31
0.0
  0
LINE
  8
0
 62
     250
 10
1823.89
 20
329.153
 30
0.0
 11
1825.12
 21
332.795
 31
0.0
  0
LINE
  8
0
 62
     250
 10
1825.12
 20
332.795
 30
0.0
 11
1826.21
 21
336.969
 31
0.0
  0
LINE
  8
0
 62
     250
 10
1826.21
 20
336.969
 30
0.0
 11
1827.1
 21
341.635
 31
0.0
  0
LINE
  8
0
 62
     250
 10
1827.1
 20
341.635
 30
0.0
 11
1827.73
 21
346.754
 31
0.0
  0
LINE
  8
0
 62
     250
 10
1827.73
 20
346.754
 30
0.0
 11
1828.02
 21
350.902
 31
0.0
  0
LINE
  8
0
 62
     250
 10
1828.02
 20
350.902
 30
0.0
 11
1828.06
 21
352.286
 31
0.0
  0
LINE
  8
0
 62
     250
 10
1828.06
 20
352.286
 30
0.0
 11
1828.09
 21
353.677
 31
0.0
  0
LINE
  8
0
 62
     250
 10
1828.09
 20
353.677
 30
0.0
 11
1827.95
 21
357.861
 31
0.0
  0
LINE
  8
0
 62
     250
 10
1827.95
 20
357.861
 30
0.0
 11
1827.39
 21
363.16
 31
0.0
  0
LINE
  8
0
 62
     250
 10
1827.39
 20
363.16
 30
0.0
 11
1826.49
 21
368.085
 31
0.0
  0
LINE
  8
0
 62
     250
 10
1826.49
 20
368.085
 30
0.0
 11
1825.34
 21
372.533
 31
0.0
  0
LINE
  8
0
 62
     250
 10
1825.34
 20
372.533
 30
0.0
 11
1824.06
 21
376.4
 31
0.0
  0
LINE
  8
0
 62
     250
 10
1824.06
 20
376.4
 30
0.0
 11
1822.74
 21
379.578
 31
0.0
  0
LINE
  8
0
 62
     250
 10
1822.74
 20
379.578
 30
0.0
 11
1821.49
 21
381.967
 31
0.0
  0
LINE
  8
0
 62
     250
 10
1821.49
 20
381.967
 30
0.0
 11
1820.72
 21
383.131
 31
0.0
  0
LINE
  8
0
 62
     250
 10
1820.72
 20
383.131
 30
0.0
 11
1820.41
 21
383.462
 31
0.0
  0
LINE
  8
0
 62
     250
 10
1820.41
 20
383.462
 30
0.0
 11
1819.96
 21
383.928
 31
0.0
  0
LINE
  8
0
 62
     250
 10
1819.96
 20
383.928
 30
0.0
 11
1818.47
 21
385.173
 31
0.0
  0
LINE
  8
0
 62
     250
 10
1818.47
 20
385.173
 30
0.0
 11
1816.52
 21
386.221
 31
0.0
  0
LINE
  8
0
 62
     250
 10
1816.52
 20
386.221
 30
0.0
 11
1814.55
 21
386.567
 31
0.0
  0
LINE
  8
0
 62
     250
 10
1814.55
 20
386.567
 30
0.0
 11
1813.03
 21
386.352
 31
0.0
  0
LINE
  8
0
 62
     250
 10
1813.03
 20
386.352
 30
0.0
 11
1812.57
 21
386.168
 31
0.0
  0
LINE
  8
0
 62
     250
 10
1812.57
 20
386.168
 30
0.0
 11
1812.18
 21
386.016
 31
0.0
  0
LINE
  8
0
 62
     250
 10
1812.18
 20
386.016
 30
0.0
 11
1811.06
 21
385.441
 31
0.0
  0
LINE
  8
0
 62
     250
 10
1811.06
 20
385.441
 30
0.0
 11
1808.71
 21
384.147
 31
0.0
  0
LINE
  8
0
 62
     250
 10
1808.71
 20
384.147
 30
0.0
 11
1805.79
 21
382.446
 31
0.0
  0
LINE
  8
0
 62
     250
 10
1805.79
 20
382.446
 30
0.0
 11
1802.58
 21
380.492
 31
0.0
  0
LINE
  8
0
 62
     250
 10
1802.58
 20
380.492
 30
0.0
 11
1799.35
 21
378.449
 31
0.0
  0
LINE
  8
0
 62
     250
 10
1799.35
 20
378.449
 30
0.0
 11
1796.37
 21
376.474
 31
0.0
  0
LINE
  8
0
 62
     250
 10
1796.37
 20
376.474
 30
0.0
 11
1793.91
 21
374.728
 31
0.0
  0
LINE
  8
0
 62
     250
 10
1793.91
 20
374.728
 30
0.0
 11
1792.63
 21
373.736
 31
0.0
  0
LINE
  8
0
 62
     250
 10
1792.63
 20
373.736
 30
0.0
 11
1792.25
 21
373.366
 31
0.0
  0
LINE
  8
0
 62
     250
 10
1793.43
 20
371.937
 30
0.0
 11
1793.48
 21
371.937
 31
0.0
  0
LINE
  8
0
 62
     250
 10
1793.48
 20
371.937
 30
0.0
 11
1793.96
 21
371.934
 31
0.0
  0
LINE
  8
0
 62
     250
 10
1793.96
 20
371.934
 30
0.0
 11
1794.01
 21
371.93
 31
0.0
  0
LINE
  8
0
 62
     250
 10
1794.01
 20
371.93
 30
0.0
 11
1794.91
 21
371.909
 31
0.0
  0
LINE
  8
0
 62
     250
 10
1794.91
 20
371.909
 30
0.0
 11
1797.57
 21
371.479
 31
0.0
  0
LINE
  8
0
 62
     250
 10
1797.57
 20
371.479
 30
0.0
 11
1800.86
 21
370.36
 31
0.0
  0
LINE
  8
0
 62
     250
 10
1800.86
 20
370.36
 30
0.0
 11
1803.82
 21
368.649
 31
0.0
  0
LINE
  8
0
 62
     250
 10
1803.82
 20
368.649
 30
0.0
 11
1806.38
 21
366.42
 31
0.0
  0
LINE
  8
0
 62
     250
 10
1806.38
 20
366.42
 30
0.0
 11
1808.47
 21
363.746
 31
0.0
  0
LINE
  8
0
 62
     250
 10
1808.47
 20
363.746
 30
0.0
 11
1810.02
 21
360.694
 31
0.0
  0
LINE
  8
0
 62
     250
 10
1810.02
 20
360.694
 30
0.0
 11
1810.97
 21
357.346
 31
0.0
  0
LINE
  8
0
 62
     250
 10
1810.97
 20
357.346
 30
0.0
 11
1811.26
 21
354.662
 31
0.0
  0
LINE
  8
0
 62
     250
 10
1811.26
 20
354.662
 30
0.0
 11
1811.23
 21
353.769
 31
0.0
  0
LINE
  8
0
 62
     250
 10
1811.23
 20
353.769
 30
0.0
 11
1811.21
 21
352.88
 31
0.0
  0
LINE
  8
0
 62
     250
 10
1811.21
 20
352.88
 30
0.0
 11
1810.78
 21
350.212
 31
0.0
  0
LINE
  8
0
 62
     250
 10
1810.78
 20
350.212
 30
0.0
 11
1809.66
 21
346.917
 31
0.0
  0
LINE
  8
0
 62
     250
 10
1809.66
 20
346.917
 30
0.0
 11
1807.95
 21
343.953
 31
0.0
  0
LINE
  8
0
 62
     250
 10
1807.95
 20
343.953
 30
0.0
 11
1805.72
 21
341.39
 31
0.0
  0
LINE
  8
0
 62
     250
 10
1805.72
 20
341.39
 30
0.0
 11
1803.05
 21
339.298
 31
0.0
  0
LINE
  8
0
 62
     250
 10
1803.05
 20
339.298
 30
0.0
 11
1800.01
 21
337.745
 31
0.0
  0
LINE
  8
0
 62
     250
 10
1800.01
 20
337.745
 30
0.0
 11
1796.66
 21
336.801
 31
0.0
  0
LINE
  8
0
 62
     250
 10
1796.66
 20
336.801
 30
0.0
 11
1793.98
 21
336.512
 31
0.0
  0
LINE
  8
0
 62
     250
 10
1793.98
 20
336.512
 30
0.0
 11
1793.09
 21
336.533
 31
0.0
  0
LINE
  8
0
 62
     250
 10
1793.09
 20
336.533
 30
0.0
 11
1792.98
 21
336.538
 31
0.0
  0
LINE
  8
0
 62
     250
 10
1792.98
 20
336.538
 30
0.0
 11
1791.86
 21
336.608
 31
0.0
  0
LINE
  8
0
 62
     250
 10
1791.86
 20
336.608
 30
0.0
 11
1791.75
 21
336.619
 31
0.0
  0
LINE
  8
0
 62
     250
 10
1800.79
 20
355.085
 30
0.0
 11
1800.77
 21
354.475
 31
0.0
  0
LINE
  8
0
 62
     250
 10
1800.77
 20
354.475
 30
0.0
 11
1800.54
 21
352.644
 31
0.0
  0
LINE
  8
0
 62
     250
 10
1800.54
 20
352.644
 30
0.0
 11
1799.99
 21
350.167
 31
0.0
  0
LINE
  8
0
 62
     250
 10
1799.99
 20
350.167
 30
0.0
 11
1799.2
 21
347.733
 31
0.0
  0
LINE
  8
0
 62
     250
 10
1799.2
 20
347.733
 30
0.0
 11
1798.26
 21
345.427
 31
0.0
  0
LINE
  8
0
 62
     250
 10
1798.26
 20
345.427
 30
0.0
 11
1797.27
 21
343.333
 31
0.0
  0
LINE
  8
0
 62
     250
 10
1797.27
 20
343.333
 30
0.0
 11
1796.28
 21
341.529
 31
0.0
  0
LINE
  8
0
 62
     250
 10
1796.28
 20
341.529
 30
0.0
 11
1795.39
 21
340.101
 31
0.0
  0
LINE
  8
0
 62
     250
 10
1795.39
 20
340.101
 30
0.0
 11
1794.87
 21
339.363
 31
0.0
  0
LINE
  8
0
 62
     250
 10
1794.87
 20
339.363
 30
0.0
 11
1794.68
 21
339.131
 31
0.0
  0
LINE
  8
0
 62
     250
 10
1794.68
 20
339.131
 30
0.0
 11
1794.34
 21
338.72
 31
0.0
  0
LINE
  8
0
 62
     250
 10
1794.34
 20
338.72
 30
0.0
 11
1793.11
 21
337.658
 31
0.0
  0
LINE
  8
0
 62
     250
 10
1793.11
 20
337.658
 30
0.0
 11
1790.89
 21
336.28
 31
0.0
  0
LINE
  8
0
 62
     250
 10
1790.89
 20
336.28
 30
0.0
 11
1788.22
 21
335.277
 31
0.0
  0
LINE
  8
0
 62
     250
 10
1788.22
 20
335.277
 30
0.0
 11
1786.01
 21
334.914
 31
0.0
  0
LINE
  8
0
 62
     250
 10
1786.01
 20
334.914
 30
0.0
 11
1785.27
 21
334.932
 31
0.0
  0
LINE
  8
0
 62
     250
 10
1785.27
 20
334.932
 30
0.0
 11
1784.61
 21
334.95
 31
0.0
  0
LINE
  8
0
 62
     250
 10
1784.61
 20
334.95
 30
0.0
 11
1782.62
 21
335.002
 31
0.0
  0
LINE
  8
0
 62
     250
 10
1782.62
 20
335.002
 30
0.0
 11
1778.13
 21
335.121
 31
0.0
  0
LINE
  8
0
 62
     250
 10
1778.13
 20
335.121
 30
0.0
 11
1772.43
 21
335.27
 31
0.0
  0
LINE
  8
0
 62
     250
 10
1772.43
 20
335.27
 30
0.0
 11
1766.19
 21
335.434
 31
0.0
  0
LINE
  8
0
 62
     250
 10
1766.19
 20
335.434
 30
0.0
 11
1760.04
 21
335.595
 31
0.0
  0
LINE
  8
0
 62
     250
 10
1760.04
 20
335.595
 30
0.0
 11
1754.64
 21
335.737
 31
0.0
  0
LINE
  8
0
 62
     250
 10
1754.64
 20
335.737
 30
0.0
 11
1750.63
 21
335.842
 31
0.0
  0
LINE
  8
0
 62
     250
 10
1750.63
 20
335.842
 30
0.0
 11
1749.15
 21
335.88
 31
0.0
  0
LINE
  8
0
 62
     250
 10
1749.15
 20
335.88
 30
0.0
 11
1748.66
 21
335.893
 31
0.0
  0
LINE
  8
0
 62
     250
 10
1748.66
 20
335.893
 30
0.0
 11
1748.44
 21
335.898
 31
0.0
  0
LINE
  8
0
 62
     250
 10
1748.44
 20
335.898
 30
0.0
 11
1747.78
 21
336.146
 31
0.0
  0
LINE
  8
0
 62
     250
 10
1747.78
 20
336.146
 30
0.0
 11
1746.67
 21
336.824
 31
0.0
  0
LINE
  8
0
 62
     250
 10
1746.67
 20
336.824
 30
0.0
 11
1745.44
 21
337.859
 31
0.0
  0
LINE
  8
0
 62
     250
 10
1745.44
 20
337.859
 30
0.0
 11
1744.2
 21
339.188
 31
0.0
  0
LINE
  8
0
 62
     250
 10
1744.2
 20
339.188
 30
0.0
 11
1743.06
 21
340.739
 31
0.0
  0
LINE
  8
0
 62
     250
 10
1743.06
 20
340.739
 30
0.0
 11
1742.12
 21
342.452
 31
0.0
  0
LINE
  8
0
 62
     250
 10
1742.12
 20
342.452
 30
0.0
 11
1741.49
 21
344.256
 31
0.0
  0
LINE
  8
0
 62
     250
 10
1741.49
 20
344.256
 30
0.0
 11
1741.28
 21
345.631
 31
0.0
  0
LINE
  8
0
 62
     250
 10
1741.28
 20
345.631
 30
0.0
 11
1741.29
 21
346.086
 31
0.0
  0
LINE
  8
0
 62
     250
 10
1741.29
 20
346.086
 30
0.0
 11
1741.31
 21
346.612
 31
0.0
  0
LINE
  8
0
 62
     250
 10
1741.31
 20
346.612
 30
0.0
 11
1741.35
 21
348.192
 31
0.0
  0
LINE
  8
0
 62
     250
 10
1741.35
 20
348.192
 30
0.0
 11
1741.42
 21
350.741
 31
0.0
  0
LINE
  8
0
 62
     250
 10
1741.42
 20
350.741
 30
0.0
 11
1741.49
 21
353.557
 31
0.0
  0
LINE
  8
0
 62
     250
 10
1741.49
 20
353.557
 30
0.0
 11
1741.57
 21
356.464
 31
0.0
  0
LINE
  8
0
 62
     250
 10
1741.57
 20
356.464
 30
0.0
 11
1741.64
 21
359.276
 31
0.0
  0
LINE
  8
0
 62
     250
 10
1741.64
 20
359.276
 30
0.0
 11
1741.71
 21
361.819
 31
0.0
  0
LINE
  8
0
 62
     250
 10
1741.71
 20
361.819
 30
0.0
 11
1741.76
 21
363.915
 31
0.0
  0
LINE
  8
0
 62
     250
 10
1741.76
 20
363.915
 30
0.0
 11
1741.79
 21
365.016
 31
0.0
  0
LINE
  8
0
 62
     250
 10
1741.79
 20
365.016
 30
0.0
 11
1741.8
 21
365.383
 31
0.0
  0
LINE
  8
0
 62
     250
 10
1741.8
 20
365.383
 30
0.0
 11
1741.81
 21
365.7
 31
0.0
  0
LINE
  8
0
 62
     250
 10
1741.81
 20
365.7
 30
0.0
 11
1741.95
 21
366.645
 31
0.0
  0
LINE
  8
0
 62
     250
 10
1741.95
 20
366.645
 30
0.0
 11
1742.36
 21
368.162
 31
0.0
  0
LINE
  8
0
 62
     250
 10
1742.36
 20
368.162
 30
0.0
 11
1743.02
 21
369.796
 31
0.0
  0
LINE
  8
0
 62
     250
 10
1743.02
 20
369.796
 30
0.0
 11
1743.95
 21
371.419
 31
0.0
  0
LINE
  8
0
 62
     250
 10
1743.95
 20
371.419
 30
0.0
 11
1745.16
 21
372.9
 31
0.0
  0
LINE
  8
0
 62
     250
 10
1745.16
 20
372.9
 30
0.0
 11
1746.65
 21
374.103
 31
0.0
  0
LINE
  8
0
 62
     250
 10
1746.65
 20
374.103
 30
0.0
 11
1748.44
 21
374.9
 31
0.0
  0
LINE
  8
0
 62
     250
 10
1748.44
 20
374.9
 30
0.0
 11
1750
 21
375.169
 31
0.0
  0
LINE
  8
0
 62
     250
 10
1750
 20
375.169
 30
0.0
 11
1750.52
 21
375.154
 31
0.0
  0
LINE
  8
0
 62
     250
 10
1750.52
 20
375.154
 30
0.0
 11
1751.32
 21
375.133
 31
0.0
  0
LINE
  8
0
 62
     250
 10
1751.32
 20
375.133
 30
0.0
 11
1753.74
 21
375.07
 31
0.0
  0
LINE
  8
0
 62
     250
 10
1753.74
 20
375.07
 30
0.0
 11
1758.55
 21
374.946
 31
0.0
  0
LINE
  8
0
 62
     250
 10
1758.55
 20
374.946
 30
0.0
 11
1764.37
 21
374.791
 31
0.0
  0
LINE
  8
0
 62
     250
 10
1764.37
 20
374.791
 30
0.0
 11
1770.63
 21
374.629
 31
0.0
  0
LINE
  8
0
 62
     250
 10
1770.63
 20
374.629
 30
0.0
 11
1776.76
 21
374.467
 31
0.0
  0
LINE
  8
0
 62
     250
 10
1776.76
 20
374.467
 30
0.0
 11
1782.19
 21
374.325
 31
0.0
  0
LINE
  8
0
 62
     250
 10
1782.19
 20
374.325
 30
0.0
 11
1786.35
 21
374.216
 31
0.0
  0
LINE
  8
0
 62
     250
 10
1786.35
 20
374.216
 30
0.0
 11
1788.08
 21
374.17
 31
0.0
  0
LINE
  8
0
 62
     250
 10
1788.08
 20
374.17
 30
0.0
 11
1788.66
 21
374.156
 31
0.0
  0
LINE
  8
0
 62
     250
 10
1788.66
 20
374.156
 30
0.0
 11
1789.23
 21
374.142
 31
0.0
  0
LINE
  8
0
 62
     250
 10
1789.23
 20
374.142
 30
0.0
 11
1790.93
 21
373.641
 31
0.0
  0
LINE
  8
0
 62
     250
 10
1790.93
 20
373.641
 30
0.0
 11
1792.92
 21
372.378
 31
0.0
  0
LINE
  8
0
 62
     250
 10
1792.92
 20
372.378
 30
0.0
 11
1794.58
 21
370.6
 31
0.0
  0
LINE
  8
0
 62
     250
 10
1794.58
 20
370.6
 30
0.0
 11
1795.59
 21
369.087
 31
0.0
  0
LINE
  8
0
 62
     250
 10
1795.59
 20
369.087
 30
0.0
 11
1795.87
 21
368.547
 31
0.0
  0
LINE
  8
0
 62
     250
 10
1795.87
 20
368.547
 30
0.0
 11
1796.2
 21
367.894
 31
0.0
  0
LINE
  8
0
 62
     250
 10
1796.2
 20
367.894
 30
0.0
 11
1797.27
 21
365.961
 31
0.0
  0
LINE
  8
0
 62
     250
 10
1797.27
 20
365.961
 30
0.0
 11
1798.92
 21
362.634
 31
0.0
  0
LINE
  8
0
 62
     250
 10
1798.92
 20
362.634
 30
0.0
 11
1800.28
 21
358.902
 31
0.0
  0
LINE
  8
0
 62
     250
 10
1800.28
 20
358.902
 30
0.0
 11
1800.81
 21
356.034
 31
0.0
  0
LINE
  8
0
 62
     250
 10
1800.81
 20
356.034
 30
0.0
 11
1800.79
 21
355.085
 31
0.0
  0
LINE
  8
0
 62
     250
 10
1368.46
 20
215.862
 30
0.0
 11
1367.85
 21
216.422
 31
0.0
  0
LINE
  8
0
 62
     250
 10
1367.85
 20
216.422
 30
0.0
 11
1366.05
 21
218.135
 31
0.0
  0
LINE
  8
0
 62
     250
 10
1366.05
 20
218.135
 30
0.0
 11
1363.27
 21
220.919
 31
0.0
  0
LINE
  8
0
 62
     250
 10
1363.27
 20
220.919
 30
0.0
 11
1360.24
 21
224.156
 31
0.0
  0
LINE
  8
0
 62
     250
 10
1360.24
 20
224.156
 30
0.0
 11
1357.08
 21
227.794
 31
0.0
  0
LINE
  8
0
 62
     250
 10
1357.08
 20
227.794
 30
0.0
 11
1353.92
 21
231.776
 31
0.0
  0
LINE
  8
0
 62
     250
 10
1353.92
 20
231.776
 30
0.0
 11
1350.9
 21
236.05
 31
0.0
  0
LINE
  8
0
 62
     250
 10
1350.9
 20
236.05
 30
0.0
 11
1348.13
 21
240.557
 31
0.0
  0
LINE
  8
0
 62
     250
 10
1348.13
 20
240.557
 30
0.0
 11
1346.29
 21
244.051
 31
0.0
  0
LINE
  8
0
 62
     250
 10
1346.29
 20
244.051
 30
0.0
 11
1345.75
 21
245.247
 31
0.0
  0
LINE
  8
0
 62
     250
 10
1345.75
 20
245.247
 30
0.0
 11
1344.95
 21
247.025
 31
0.0
  0
LINE
  8
0
 62
     250
 10
1344.95
 20
247.025
 30
0.0
 11
1342.77
 21
252.461
 31
0.0
  0
LINE
  8
0
 62
     250
 10
1342.77
 20
252.461
 30
0.0
 11
1339.85
 21
260.708
 31
0.0
  0
LINE
  8
0
 62
     250
 10
1339.85
 20
260.708
 30
0.0
 11
1337.06
 21
269.701
 31
0.0
  0
LINE
  8
0
 62
     250
 10
1337.06
 20
269.701
 30
0.0
 11
1334.48
 21
279.146
 31
0.0
  0
LINE
  8
0
 62
     250
 10
1334.48
 20
279.146
 30
0.0
 11
1332.21
 21
288.753
 31
0.0
  0
LINE
  8
0
 62
     250
 10
1332.21
 20
288.753
 30
0.0
 11
1330.31
 21
298.231
 31
0.0
  0
LINE
  8
0
 62
     250
 10
1330.31
 20
298.231
 30
0.0
 11
1328.88
 21
307.287
 31
0.0
  0
LINE
  8
0
 62
     250
 10
1328.88
 20
307.287
 30
0.0
 11
1328.15
 21
313.542
 31
0.0
  0
LINE
  8
0
 62
     250
 10
1328.15
 20
313.542
 30
0.0
 11
1328
 21
315.633
 31
0.0
  0
LINE
  8
0
 62
     250
 10
1328
 20
315.633
 30
0.0
 11
1327.92
 21
316.694
 31
0.0
  0
LINE
  8
0
 62
     250
 10
1327.92
 20
316.694
 30
0.0
 11
1327.74
 21
319.881
 31
0.0
  0
LINE
  8
0
 62
     250
 10
1327.74
 20
319.881
 30
0.0
 11
1327.56
 21
324.681
 31
0.0
  0
LINE
  8
0
 62
     250
 10
1327.56
 20
324.681
 30
0.0
 11
1327.45
 21
329.952
 31
0.0
  0
LINE
  8
0
 62
     250
 10
1327.45
 20
329.952
 30
0.0
 11
1327.4
 21
335.613
 31
0.0
  0
LINE
  8
0
 62
     250
 10
1327.4
 20
335.613
 30
0.0
 11
1327.42
 21
341.585
 31
0.0
  0
LINE
  8
0
 62
     250
 10
1327.42
 20
341.585
 30
0.0
 11
1327.49
 21
347.791
 31
0.0
  0
LINE
  8
0
 62
     250
 10
1327.49
 20
347.791
 30
0.0
 11
1327.61
 21
354.147
 31
0.0
  0
LINE
  8
0
 62
     250
 10
1327.61
 20
354.147
 30
0.0
 11
1327.78
 21
360.574
 31
0.0
  0
LINE
  8
0
 62
     250
 10
1327.78
 20
360.574
 30
0.0
 11
1328
 21
366.995
 31
0.0
  0
LINE
  8
0
 62
     250
 10
1328
 20
366.995
 30
0.0
 11
1328.25
 21
373.327
 31
0.0
  0
LINE
  8
0
 62
     250
 10
1328.25
 20
373.327
 30
0.0
 11
1328.54
 21
379.49
 31
0.0
  0
LINE
  8
0
 62
     250
 10
1328.54
 20
379.49
 30
0.0
 11
1328.87
 21
385.406
 31
0.0
  0
LINE
  8
0
 62
     250
 10
1328.87
 20
385.406
 30
0.0
 11
1329.22
 21
390.994
 31
0.0
  0
LINE
  8
0
 62
     250
 10
1329.22
 20
390.994
 30
0.0
 11
1329.6
 21
396.177
 31
0.0
  0
LINE
  8
0
 62
     250
 10
1329.6
 20
396.177
 30
0.0
 11
1330
 21
400.868
 31
0.0
  0
LINE
  8
0
 62
     250
 10
1330
 20
400.868
 30
0.0
 11
1330.29
 21
403.966
 31
0.0
  0
LINE
  8
0
 62
     250
 10
1330.29
 20
403.966
 30
0.0
 11
1330.41
 21
404.996
 31
0.0
  0
LINE
  8
0
 62
     250
 10
1330.41
 20
404.996
 30
0.0
 11
1330.62
 21
406.961
 31
0.0
  0
LINE
  8
0
 62
     250
 10
1330.62
 20
406.961
 30
0.0
 11
1331.5
 21
412.838
 31
0.0
  0
LINE
  8
0
 62
     250
 10
1331.5
 20
412.838
 30
0.0
 11
1333.05
 21
420.941
 31
0.0
  0
LINE
  8
0
 62
     250
 10
1333.05
 20
420.941
 30
0.0
 11
1335
 21
429.098
 31
0.0
  0
LINE
  8
0
 62
     250
 10
1335
 20
429.098
 30
0.0
 11
1337.3
 21
437.085
 31
0.0
  0
LINE
  8
0
 62
     250
 10
1337.3
 20
437.085
 30
0.0
 11
1339.9
 21
444.683
 31
0.0
  0
LINE
  8
0
 62
     250
 10
1339.9
 20
444.683
 30
0.0
 11
1342.72
 21
451.672
 31
0.0
  0
LINE
  8
0
 62
     250
 10
1342.72
 20
451.672
 30
0.0
 11
1345.73
 21
457.839
 31
0.0
  0
LINE
  8
0
 62
     250
 10
1345.73
 20
457.839
 30
0.0
 11
1348
 21
461.737
 31
0.0
  0
LINE
  8
0
 62
     250
 10
1348
 20
461.737
 30
0.0
 11
1348.85
 21
462.961
 31
0.0
  0
LINE
  8
0
 62
     250
 10
1348.85
 20
462.961
 30
0.0
 11
1350.19
 21
464.884
 31
0.0
  0
LINE
  8
0
 62
     250
 10
1350.19
 20
464.884
 30
0.0
 11
1354.52
 21
470.443
 31
0.0
  0
LINE
  8
0
 62
     250
 10
1354.52
 20
470.443
 30
0.0
 11
1360.44
 21
477.28
 31
0.0
  0
LINE
  8
0
 62
     250
 10
1360.44
 20
477.28
 30
0.0
 11
1366.19
 21
483.154
 31
0.0
  0
LINE
  8
0
 62
     250
 10
1366.19
 20
483.154
 30
0.0
 11
1370
 21
486.657
 31
0.0
  0
LINE
  8
0
 62
     250
 10
1370
 20
486.657
 30
0.0
 11
1371.34
 21
487.747
 31
0.0
  0
LINE
  8
0
 62
     250
 10
1742.65
 20
340.82
 30
0.0
 11
1742.65
 21
340.82
 31
0.0
  0
LINE
  8
0
 62
     250
 10
1742.65
 20
340.82
 30
0.0
 11
1741.8
 21
341.099
 31
0.0
  0
LINE
  8
0
 62
     250
 10
1741.8
 20
341.099
 30
0.0
 11
1739.77
 21
341.862
 31
0.0
  0
LINE
  8
0
 62
     250
 10
1739.77
 20
341.862
 30
0.0
 11
1737.3
 21
343.009
 31
0.0
  0
LINE
  8
0
 62
     250
 10
1737.3
 20
343.009
 30
0.0
 11
1735.64
 21
344.011
 31
0.0
  0
LINE
  8
0
 62
     250
 10
1735.64
 20
344.011
 30
0.0
 11
1735.16
 21
344.431
 31
0.0
  0
LINE
  8
0
 62
     250
 10
1735.16
 20
344.431
 30
0.0
 11
1734.72
 21
344.816
 31
0.0
  0
LINE
  8
0
 62
     250
 10
1734.72
 20
344.816
 30
0.0
 11
1733.68
 21
346.271
 31
0.0
  0
LINE
  8
0
 62
     250
 10
1733.68
 20
346.271
 30
0.0
 11
1732.68
 21
348.655
 31
0.0
  0
LINE
  8
0
 62
     250
 10
1732.68
 20
348.655
 30
0.0
 11
1732.1
 21
351.474
 31
0.0
  0
LINE
  8
0
 62
     250
 10
1732.1
 20
351.474
 30
0.0
 11
1731.92
 21
353.829
 31
0.0
  0
LINE
  8
0
 62
     250
 10
1731.92
 20
353.829
 30
0.0
 11
1731.92
 21
354.616
 31
0.0
  0
LINE
  8
0
 62
     250
 10
1731.92
 20
354.616
 30
0.0
 11
1731.92
 21
355.374
 31
0.0
  0
LINE
  8
0
 62
     250
 10
1731.92
 20
355.374
 30
0.0
 11
1732.19
 21
357.643
 31
0.0
  0
LINE
  8
0
 62
     250
 10
1732.19
 20
357.643
 30
0.0
 11
1732.9
 21
360.168
 31
0.0
  0
LINE
  8
0
 62
     250
 10
1732.9
 20
360.168
 30
0.0
 11
1733.91
 21
362.141
 31
0.0
  0
LINE
  8
0
 62
     250
 10
1733.91
 20
362.141
 30
0.0
 11
1734.74
 21
363.209
 31
0.0
  0
LINE
  8
0
 62
     250
 10
1734.74
 20
363.209
 30
0.0
 11
1735.07
 21
363.502
 31
0.0
  0
LINE
  8
0
 62
     250
 10
1735.07
 20
363.502
 30
0.0
 11
1735.39
 21
363.788
 31
0.0
  0
LINE
  8
0
 62
     250
 10
1735.39
 20
363.788
 30
0.0
 11
1736.45
 21
364.539
 31
0.0
  0
LINE
  8
0
 62
     250
 10
1736.45
 20
364.539
 30
0.0
 11
1738.14
 21
365.492
 31
0.0
  0
LINE
  8
0
 62
     250
 10
1738.14
 20
365.492
 30
0.0
 11
1740.01
 21
366.236
 31
0.0
  0
LINE
  8
0
 62
     250
 10
1740.01
 20
366.236
 30
0.0
 11
1741.43
 21
366.596
 31
0.0
  0
LINE
  8
0
 62
     250
 10
1741.43
 20
366.596
 30
0.0
 11
1741.91
 21
366.649
 31
0.0
  0
LINE
  8
0
 62
     250
 10
1542.1
 20
354.305
 30
0.0
 11
1542.1
 21
353.092
 31
0.0
  0
LINE
  8
0
 62
     250
 10
1542.1
 20
353.092
 30
0.0
 11
1541.61
 21
349.442
 31
0.0
  0
LINE
  8
0
 62
     250
 10
1541.61
 20
349.442
 30
0.0
 11
1540.19
 21
344.909
 31
0.0
  0
LINE
  8
0
 62
     250
 10
1540.19
 20
344.909
 30
0.0
 11
1537.95
 21
340.808
 31
0.0
  0
LINE
  8
0
 62
     250
 10
1537.95
 20
340.808
 30
0.0
 11
1534.98
 21
337.235
 31
0.0
  0
LINE
  8
0
 62
     250
 10
1534.98
 20
337.235
 30
0.0
 11
1531.39
 21
334.287
 31
0.0
  0
LINE
  8
0
 62
     250
 10
1531.39
 20
334.287
 30
0.0
 11
1527.26
 21
332.06
 31
0.0
  0
LINE
  8
0
 62
     250
 10
1527.26
 20
332.06
 30
0.0
 11
1522.69
 21
330.653
 31
0.0
  0
LINE
  8
0
 62
     250
 10
1522.69
 20
330.653
 30
0.0
 11
1519.02
 21
330.163
 31
0.0
  0
LINE
  8
0
 62
     250
 10
1519.02
 20
330.163
 30
0.0
 11
1517.8
 21
330.163
 31
0.0
  0
LINE
  8
0
 62
     250
 10
1517.8
 20
330.163
 30
0.0
 11
1516.57
 21
330.163
 31
0.0
  0
LINE
  8
0
 62
     250
 10
1516.57
 20
330.163
 30
0.0
 11
1512.9
 21
330.653
 31
0.0
  0
LINE
  8
0
 62
     250
 10
1512.9
 20
330.653
 30
0.0
 11
1508.34
 21
332.06
 31
0.0
  0
LINE
  8
0
 62
     250
 10
1508.34
 20
332.06
 30
0.0
 11
1504.21
 21
334.287
 31
0.0
  0
LINE
  8
0
 62
     250
 10
1504.21
 20
334.287
 30
0.0
 11
1500.62
 21
337.235
 31
0.0
  0
LINE
  8
0
 62
     250
 10
1500.62
 20
337.235
 30
0.0
 11
1497.65
 21
340.808
 31
0.0
  0
LINE
  8
0
 62
     250
 10
1497.65
 20
340.808
 30
0.0
 11
1495.41
 21
344.909
 31
0.0
  0
LINE
  8
0
 62
     250
 10
1495.41
 20
344.909
 30
0.0
 11
1494
 21
349.442
 31
0.0
  0
LINE
  8
0
 62
     250
 10
1494
 20
349.442
 30
0.0
 11
1493.5
 21
353.092
 31
0.0
  0
LINE
  8
0
 62
     250
 10
1493.5
 20
353.092
 30
0.0
 11
1493.5
 21
354.305
 31
0.0
  0
LINE
  8
0
 62
     250
 10
1493.5
 20
354.305
 30
0.0
 11
1493.5
 21
355.522
 31
0.0
  0
LINE
  8
0
 62
     250
 10
1493.5
 20
355.522
 30
0.0
 11
1494
 21
359.174
 31
0.0
  0
LINE
  8
0
 62
     250
 10
1494
 20
359.174
 30
0.0
 11
1495.41
 21
363.703
 31
0.0
  0
LINE
  8
0
 62
     250
 10
1495.41
 20
363.703
 30
0.0
 11
1497.65
 21
367.803
 31
0.0
  0
LINE
  8
0
 62
     250
 10
1497.65
 20
367.803
 30
0.0
 11
1500.62
 21
371.376
 31
0.0
  0
LINE
  8
0
 62
     250
 10
1500.62
 20
371.376
 30
0.0
 11
1504.21
 21
374.325
 31
0.0
  0
LINE
  8
0
 62
     250
 10
1504.21
 20
374.325
 30
0.0
 11
1508.34
 21
376.551
 31
0.0
  0
LINE
  8
0
 62
     250
 10
1508.34
 20
376.551
 30
0.0
 11
1512.9
 21
377.959
 31
0.0
  0
LINE
  8
0
 62
     250
 10
1512.9
 20
377.959
 30
0.0
 11
1516.57
 21
378.449
 31
0.0
  0
LINE
  8
0
 62
     250
 10
1516.57
 20
378.449
 30
0.0
 11
1517.8
 21
378.449
 31
0.0
  0
LINE
  8
0
 62
     250
 10
1517.8
 20
378.449
 30
0.0
 11
1519.02
 21
378.449
 31
0.0
  0
LINE
  8
0
 62
     250
 10
1519.02
 20
378.449
 30
0.0
 11
1522.69
 21
377.959
 31
0.0
  0
LINE
  8
0
 62
     250
 10
1522.69
 20
377.959
 30
0.0
 11
1527.26
 21
376.551
 31
0.0
  0
LINE
  8
0
 62
     250
 10
1527.26
 20
376.551
 30
0.0
 11
1531.39
 21
374.325
 31
0.0
  0
LINE
  8
0
 62
     250
 10
1531.39
 20
374.325
 30
0.0
 11
1534.98
 21
371.376
 31
0.0
  0
LINE
  8
0
 62
     250
 10
1534.98
 20
371.376
 30
0.0
 11
1537.95
 21
367.803
 31
0.0
  0
LINE
  8
0
 62
     250
 10
1537.95
 20
367.803
 30
0.0
 11
1540.19
 21
363.703
 31
0.0
  0
LINE
  8
0
 62
     250
 10
1540.19
 20
363.703
 30
0.0
 11
1541.61
 21
359.174
 31
0.0
  0
LINE
  8
0
 62
     250
 10
1541.61
 20
359.174
 30
0.0
 11
1542.1
 21
355.522
 31
0.0
  0
LINE
  8
0
 62
     250
 10
1542.1
 20
355.522
 30
0.0
 11
1542.1
 21
354.305
 31
0.0
  0
LINE
  8
0
 62
     250
 10
1517.8
 20
414.659
 30
0.0
 11
1517.8
 21
293.951
 31
0.0
  0
LINE
  8
0
 62
     250
 10
1637.41
 20
414.659
 30
0.0
 11
1637.41
 21
293.951
 31
0.0
  0
LINE
  8
0
 62
     250
 10
118.805
 20
791.034
 30
0.0
 11
118.805
 21
711.038
 31
0.0
  0
LINE
  8
0
 62
     250
 10
1878.81
 20
791.034
 30
0.0
 11
1878.81
 21
711.038
 31
0.0
  0
LINE
  8
0
 62
     250
 10
123.789
 20
751.036
 30
0.0
 11
1873.82
 21
751.036
 31
0.0
  0
LINE
  8
0
 62
     250
 10
134.215
 20
745.427
 30
0.0
 11
134.819
 21
747.085
 31
0.0
  0
LINE
  8
0
 62
     250
 10
134.819
 20
747.085
 30
0.0
 11
123.962
 21
751.036
 31
0.0
  0
LINE
  8
0
 62
     250
 10
123.962
 20
751.036
 30
0.0
 11
134.819
 21
754.987
 31
0.0
  0
LINE
  8
0
 62
     250
 10
134.819
 20
754.987
 30
0.0
 11
134.215
 21
756.645
 31
0.0
  0
LINE
  8
0
 62
     250
 10
134.215
 20
756.645
 30
0.0
 11
118.805
 21
751.036
 31
0.0
  0
LINE
  8
0
 62
     250
 10
118.805
 20
751.036
 30
0.0
 11
134.215
 21
745.427
 31
0.0
  0
LINE
  8
0
 62
     250
 10
1863.39
 20
745.427
 30
0.0
 11
1862.79
 21
747.085
 31
0.0
  0
LINE
  8
0
 62
     250
 10
1862.79
 20
747.085
 30
0.0
 11
1873.65
 21
751.036
 31
0.0
  0
LINE
  8
0
 62
     250
 10
1873.65
 20
751.036
 30
0.0
 11
1862.79
 21
754.987
 31
0.0
  0
LINE
  8
0
 62
     250
 10
1862.79
 20
754.987
 30
0.0
 11
1863.39
 21
756.645
 31
0.0
  0
LINE
  8
0
 62
     250
 10
1863.39
 20
756.645
 30
0.0
 11
1878.81
 21
751.036
 31
0.0
  0
LINE
  8
0
 62
     250
 10
1878.81
 20
751.036
 30
0.0
 11
1863.39
 21
745.427
 31
0.0
  0
LINE
  8
0
 62
     250
 10
955.209
 20
767.867
 30
0.0
 11
955.209
 21
784.913
 31
0.0
  0
LINE
  8
0
 62
     250
 10
955.209
 20
784.913
 30
0.0
 11
955.156
 21
784.913
 31
0.0
  0
LINE
  8
0
 62
     250
 10
955.156
 20
784.913
 30
0.0
 11
952.031
 21
783.11
 31
0.0
  0
LINE
  8
0
 62
     250
 10
952.031
 20
783.11
 30
0.0
 11
951.523
 21
784.684
 31
0.0
  0
LINE
  8
0
 62
     250
 10
951.523
 20
784.684
 30
0.0
 11
955.46
 21
786.892
 31
0.0
  0
LINE
  8
0
 62
     250
 10
955.46
 20
786.892
 30
0.0
 11
957.266
 21
786.892
 31
0.0
  0
LINE
  8
0
 62
     250
 10
957.266
 20
786.892
 30
0.0
 11
957.266
 21
767.867
 31
0.0
  0
LINE
  8
0
 62
     250
 10
957.266
 20
767.867
 30
0.0
 11
955.209
 21
767.867
 31
0.0
  0
LINE
  8
0
 62
     250
 10
964.198
 20
786.892
 30
0.0
 11
975.349
 21
786.892
 31
0.0
  0
LINE
  8
0
 62
     250
 10
975.349
 20
786.892
 30
0.0
 11
975.349
 21
785.548
 31
0.0
  0
LINE
  8
0
 62
     250
 10
975.349
 20
785.548
 30
0.0
 11
967.398
 21
767.867
 31
0.0
  0
LINE
  8
0
 62
     250
 10
967.398
 20
767.867
 30
0.0
 11
965.239
 21
767.867
 31
0.0
  0
LINE
  8
0
 62
     250
 10
965.239
 20
767.867
 30
0.0
 11
973.19
 21
785.089
 31
0.0
  0
LINE
  8
0
 62
     250
 10
973.19
 20
785.089
 30
0.0
 11
973.19
 21
785.142
 31
0.0
  0
LINE
  8
0
 62
     250
 10
973.19
 20
785.142
 30
0.0
 11
964.198
 21
785.142
 31
0.0
  0
LINE
  8
0
 62
     250
 10
964.198
 20
785.142
 30
0.0
 11
964.198
 21
786.892
 31
0.0
  0
LINE
  8
0
 62
     250
 10
987.492
 20
774.065
 30
0.0
 11
987.492
 21
774.555
 31
0.0
  0
LINE
  8
0
 62
     250
 10
987.492
 20
774.555
 30
0.0
 11
987.21
 21
776.019
 31
0.0
  0
LINE
  8
0
 62
     250
 10
987.21
 20
776.019
 30
0.0
 11
986.416
 21
777.473
 31
0.0
  0
LINE
  8
0
 62
     250
 10
986.416
 20
777.473
 30
0.0
 11
985.195
 21
778.376
 31
0.0
  0
LINE
  8
0
 62
     250
 10
985.195
 20
778.376
 30
0.0
 11
984.021
 21
778.686
 31
0.0
  0
LINE
  8
0
 62
     250
 10
984.021
 20
778.686
 30
0.0
 11
983.629
 21
778.686
 31
0.0
  0
LINE
  8
0
 62
     250
 10
983.629
 20
778.686
 30
0.0
 11
983.424
 21
778.686
 31
0.0
  0
LINE
  8
0
 62
     250
 10
983.424
 20
778.686
 30
0.0
 11
982.818
 21
778.591
 31
0.0
  0
LINE
  8
0
 62
     250
 10
982.818
 20
778.591
 30
0.0
 11
982.07
 21
778.327
 31
0.0
  0
LINE
  8
0
 62
     250
 10
982.07
 20
778.327
 30
0.0
 11
981.403
 21
777.924
 31
0.0
  0
LINE
  8
0
 62
     250
 10
981.403
 20
777.924
 30
0.0
 11
980.825
 21
777.42
 31
0.0
  0
LINE
  8
0
 62
     250
 10
980.825
 20
777.42
 30
0.0
 11
980.348
 21
776.848
 31
0.0
  0
LINE
  8
0
 62
     250
 10
980.348
 20
776.848
 30
0.0
 11
979.992
 21
776.245
 31
0.0
  0
LINE
  8
0
 62
     250
 10
979.992
 20
776.245
 30
0.0
 11
979.77
 21
775.645
 31
0.0
  0
LINE
  8
0
 62
     250
 10
979.77
 20
775.645
 30
0.0
 11
979.692
 21
775.222
 31
0.0
  0
LINE
  8
0
 62
     250
 10
979.692
 20
775.222
 30
0.0
 11
979.692
 21
775.081
 31
0.0
  0
LINE
  8
0
 62
     250
 10
979.692
 20
775.081
 30
0.0
 11
979.696
 21
774.485
 31
0.0
  0
LINE
  8
0
 62
     250
 10
979.696
 20
774.485
 30
0.0
 11
979.978
 21
772.696
 31
0.0
  0
LINE
  8
0
 62
     250
 10
979.978
 20
772.696
 30
0.0
 11
980.782
 21
770.844
 31
0.0
  0
LINE
  8
0
 62
     250
 10
980.782
 20
770.844
 30
0.0
 11
982.077
 21
769.641
 31
0.0
  0
LINE
  8
0
 62
     250
 10
982.077
 20
769.641
 30
0.0
 11
983.393
 21
769.214
 31
0.0
  0
LINE
  8
0
 62
     250
 10
983.393
 20
769.214
 30
0.0
 11
983.834
 21
769.214
 31
0.0
  0
LINE
  8
0
 62
     250
 10
983.834
 20
769.214
 30
0.0
 11
984.208
 21
769.214
 31
0.0
  0
LINE
  8
0
 62
     250
 10
984.208
 20
769.214
 30
0.0
 11
985.337
 21
769.571
 31
0.0
  0
LINE
  8
0
 62
     250
 10
985.337
 20
769.571
 30
0.0
 11
986.49
 21
770.562
 31
0.0
  0
LINE
  8
0
 62
     250
 10
986.49
 20
770.562
 30
0.0
 11
987.231
 21
772.097
 31
0.0
  0
LINE
  8
0
 62
     250
 10
987.231
 20
772.097
 30
0.0
 11
987.492
 21
773.571
 31
0.0
  0
LINE
  8
0
 62
     250
 10
987.492
 20
773.571
 30
0.0
 11
987.492
 21
774.065
 31
0.0
  0
LINE
  8
0
 62
     250
 10
979.794
 20
777.953
 30
0.0
 11
979.96
 21
778.196
 31
0.0
  0
LINE
  8
0
 62
     250
 10
979.96
 20
778.196
 30
0.0
 11
980.567
 21
778.852
 31
0.0
  0
LINE
  8
0
 62
     250
 10
980.567
 20
778.852
 30
0.0
 11
981.579
 21
779.597
 31
0.0
  0
LINE
  8
0
 62
     250
 10
981.579
 20
779.597
 30
0.0
 11
982.807
 21
780.105
 31
0.0
  0
LINE
  8
0
 62
     250
 10
982.807
 20
780.105
 30
0.0
 11
983.88
 21
780.288
 31
0.0
  0
LINE
  8
0
 62
     250
 10
983.88
 20
780.288
 30
0.0
 11
984.239
 21
780.288
 31
0.0
  0
LINE
  8
0
 62
     250
 10
984.239
 20
780.288
 30
0.0
 11
984.79
 21
780.288
 31
0.0
  0
LINE
  8
0
 62
     250
 10
984.79
 20
780.288
 30
0.0
 11
986.441
 21
779.854
 31
0.0
  0
LINE
  8
0
 62
     250
 10
986.441
 20
779.854
 30
0.0
 11
988.141
 21
778.626
 31
0.0
  0
LINE
  8
0
 62
     250
 10
988.141
 20
778.626
 30
0.0
 11
989.235
 21
776.711
 31
0.0
  0
LINE
  8
0
 62
     250
 10
989.235
 20
776.711
 30
0.0
 11
989.623
 21
774.841
 31
0.0
  0
LINE
  8
0
 62
     250
 10
989.623
 20
774.841
 30
0.0
 11
989.623
 21
774.217
 31
0.0
  0
LINE
  8
0
 62
     250
 10
989.623
 20
774.217
 30
0.0
 11
989.623
 21
773.592
 31
0.0
  0
LINE
  8
0
 62
     250
 10
989.623
 20
773.592
 30
0.0
 11
989.235
 21
771.712
 31
0.0
  0
LINE
  8
0
 62
     250
 10
989.235
 20
771.712
 30
0.0
 11
988.092
 21
769.585
 31
0.0
  0
LINE
  8
0
 62
     250
 10
988.092
 20
769.585
 30
0.0
 11
986.261
 21
768.114
 31
0.0
  0
LINE
  8
0
 62
     250
 10
986.261
 20
768.114
 30
0.0
 11
984.402
 21
767.563
 31
0.0
  0
LINE
  8
0
 62
     250
 10
984.402
 20
767.563
 30
0.0
 11
983.784
 21
767.563
 31
0.0
  0
LINE
  8
0
 62
     250
 10
983.784
 20
767.563
 30
0.0
 11
983.149
 21
767.563
 31
0.0
  0
LINE
  8
0
 62
     250
 10
983.149
 20
767.563
 30
0.0
 11
981.248
 21
768.121
 31
0.0
  0
LINE
  8
0
 62
     250
 10
981.248
 20
768.121
 30
0.0
 11
979.293
 21
769.715
 31
0.0
  0
LINE
  8
0
 62
     250
 10
979.293
 20
769.715
 30
0.0
 11
978.031
 21
772.238
 31
0.0
  0
LINE
  8
0
 62
     250
 10
978.031
 20
772.238
 30
0.0
 11
977.586
 21
774.732
 31
0.0
  0
LINE
  8
0
 62
     250
 10
977.586
 20
774.732
 30
0.0
 11
977.586
 21
775.564
 31
0.0
  0
LINE
  8
0
 62
     250
 10
977.586
 20
775.564
 30
0.0
 11
977.586
 21
776.044
 31
0.0
  0
LINE
  8
0
 62
     250
 10
977.586
 20
776.044
 30
0.0
 11
977.699
 21
777.48
 31
0.0
  0
LINE
  8
0
 62
     250
 10
977.699
 20
777.48
 30
0.0
 11
978.052
 21
779.367
 31
0.0
  0
LINE
  8
0
 62
     250
 10
978.052
 20
779.367
 30
0.0
 11
978.666
 21
781.166
 31
0.0
  0
LINE
  8
0
 62
     250
 10
978.666
 20
781.166
 30
0.0
 11
979.551
 21
782.828
 31
0.0
  0
LINE
  8
0
 62
     250
 10
979.551
 20
782.828
 30
0.0
 11
980.722
 21
784.296
 31
0.0
  0
LINE
  8
0
 62
     250
 10
980.722
 20
784.296
 30
0.0
 11
982.204
 21
785.52
 31
0.0
  0
LINE
  8
0
 62
     250
 10
982.204
 20
785.52
 30
0.0
 11
984.003
 21
786.448
 31
0.0
  0
LINE
  8
0
 62
     250
 10
984.003
 20
786.448
 30
0.0
 11
985.601
 21
786.931
 31
0.0
  0
LINE
  8
0
 62
     250
 10
985.601
 20
786.931
 30
0.0
 11
986.144
 21
787.019
 31
0.0
  0
LINE
  8
0
 62
     250
 10
986.144
 20
787.019
 30
0.0
 11
986.324
 21
787.047
 31
0.0
  0
LINE
  8
0
 62
     250
 10
986.324
 20
787.047
 30
0.0
 11
987.139
 21
787.15
 31
0.0
  0
LINE
  8
0
 62
     250
 10
987.139
 20
787.15
 30
0.0
 11
987.725
 21
787.199
 31
0.0
  0
LINE
  8
0
 62
     250
 10
987.725
 20
787.199
 30
0.0
 11
987.922
 21
787.199
 31
0.0
  0
LINE
  8
0
 62
     250
 10
987.922
 20
787.199
 30
0.0
 11
987.947
 21
785.446
 31
0.0
  0
LINE
  8
0
 62
     250
 10
987.947
 20
785.446
 30
0.0
 11
987.086
 21
785.446
 31
0.0
  0
LINE
  8
0
 62
     250
 10
987.086
 20
785.446
 30
0.0
 11
984.493
 21
784.789
 31
0.0
  0
LINE
  8
0
 62
     250
 10
984.493
 20
784.789
 30
0.0
 11
982.013
 21
783.071
 31
0.0
  0
LINE
  8
0
 62
     250
 10
982.013
 20
783.071
 30
0.0
 11
980.444
 21
780.665
 31
0.0
  0
LINE
  8
0
 62
     250
 10
980.444
 20
780.665
 30
0.0
 11
979.798
 21
778.644
 31
0.0
  0
LINE
  8
0
 62
     250
 10
979.798
 20
778.644
 30
0.0
 11
979.717
 21
777.953
 31
0.0
  0
LINE
  8
0
 62
     250
 10
979.717
 20
777.953
 30
0.0
 11
979.794
 21
777.953
 31
0.0
  0
LINE
  8
0
 62
     250
 10
1001.43
 20
777.469
 30
0.0
 11
1001.43
 21
778.284
 31
0.0
  0
LINE
  8
0
 62
     250
 10
1001.43
 20
778.284
 30
0.0
 11
1001.22
 21
780.729
 31
0.0
  0
LINE
  8
0
 62
     250
 10
1001.22
 20
780.729
 30
0.0
 11
1000.53
 21
783.265
 31
0.0
  0
LINE
  8
0
 62
     250
 10
1000.53
 20
783.265
 30
0.0
 11
999.345
 21
784.913
 31
0.0
  0
LINE
  8
0
 62
     250
 10
999.345
 20
784.913
 30
0.0
 11
998.054
 21
785.499
 31
0.0
  0
LINE
  8
0
 62
     250
 10
998.054
 20
785.499
 30
0.0
 11
997.624
 21
785.499
 31
0.0
  0
LINE
  8
0
 62
     250
 10
997.624
 20
785.499
 30
0.0
 11
997.236
 21
785.499
 31
0.0
  0
LINE
  8
0
 62
     250
 10
997.236
 20
785.499
 30
0.0
 11
996.068
 21
784.948
 31
0.0
  0
LINE
  8
0
 62
     250
 10
996.068
 20
784.948
 30
0.0
 11
994.847
 21
783.361
 31
0.0
  0
LINE
  8
0
 62
     250
 10
994.847
 20
783.361
 30
0.0
 11
994.05
 21
780.835
 31
0.0
  0
LINE
  8
0
 62
     250
 10
994.05
 20
780.835
 30
0.0
 11
993.764
 21
778.309
 31
0.0
  0
LINE
  8
0
 62
     250
 10
993.764
 20
778.309
 30
0.0
 11
993.764
 21
777.469
 31
0.0
  0
LINE
  8
0
 62
     250
 10
993.764
 20
777.469
 30
0.0
 11
993.764
 21
776.623
 31
0.0
  0
LINE
  8
0
 62
     250
 10
993.764
 20
776.623
 30
0.0
 11
994.018
 21
774.079
 31
0.0
  0
LINE
  8
0
 62
     250
 10
994.018
 20
774.079
 30
0.0
 11
994.759
 21
771.504
 31
0.0
  0
LINE
  8
0
 62
     250
 10
994.759
 20
771.504
 30
0.0
 11
995.948
 21
769.863
 31
0.0
  0
LINE
  8
0
 62
     250
 10
995.948
 20
769.863
 30
0.0
 11
997.148
 21
769.288
 31
0.0
  0
LINE
  8
0
 62
     250
 10
997.148
 20
769.288
 30
0.0
 11
997.55
 21
769.288
 31
0.0
  0
LINE
  8
0
 62
     250
 10
997.55
 20
769.288
 30
0.0
 11
997.998
 21
769.288
 31
0.0
  0
LINE
  8
0
 62
     250
 10
997.998
 20
769.288
 30
0.0
 11
999.345
 21
769.93
 31
0.0
  0
LINE
  8
0
 62
     250
 10
999.345
 20
769.93
 30
0.0
 11
1000.55
 21
771.684
 31
0.0
  0
LINE
  8
0
 62
     250
 10
1000.55
 20
771.684
 30
0.0
 11
1001.23
 21
774.284
 31
0.0
  0
LINE
  8
0
 62
     250
 10
1001.23
 20
774.284
 30
0.0
 11
1001.43
 21
776.672
 31
0.0
  0
LINE
  8
0
 62
     250
 10
1001.43
 20
776.672
 30
0.0
 11
1001.43
 21
777.469
 31
0.0
  0
LINE
  8
0
 62
     250
 10
991.605
 20
777.318
 30
0.0
 11
991.605
 21
778.404
 31
0.0
  0
LINE
  8
0
 62
     250
 10
991.605
 20
778.404
 30
0.0
 11
992.064
 21
781.671
 31
0.0
  0
LINE
  8
0
 62
     250
 10
992.064
 20
781.671
 30
0.0
 11
993.345
 21
784.754
 31
0.0
  0
LINE
  8
0
 62
     250
 10
993.345
 20
784.754
 30
0.0
 11
995.292
 21
786.592
 31
0.0
  0
LINE
  8
0
 62
     250
 10
995.292
 20
786.592
 30
0.0
 11
997.137
 21
787.199
 31
0.0
  0
LINE
  8
0
 62
     250
 10
997.137
 20
787.199
 30
0.0
 11
997.751
 21
787.199
 31
0.0
  0
LINE
  8
0
 62
     250
 10
997.751
 20
787.199
 30
0.0
 11
998.361
 21
787.199
 31
0.0
  0
LINE
  8
0
 62
     250
 10
998.361
 20
787.199
 30
0.0
 11
1000.18
 21
786.571
 31
0.0
  0
LINE
  8
0
 62
     250
 10
1000.18
 20
786.571
 30
0.0
 11
1002.01
 21
784.719
 31
0.0
  0
LINE
  8
0
 62
     250
 10
1002.01
 20
784.719
 30
0.0
 11
1003.17
 21
781.703
 31
0.0
  0
LINE
  8
0
 62
     250
 10
1003.17
 20
781.703
 30
0.0
 11
1003.57
 21
778.605
 31
0.0
  0
LINE
  8
0
 62
     250
 10
1003.57
 20
778.605
 30
0.0
 11
1003.57
 21
777.572
 31
0.0
  0
LINE
  8
0
 62
     250
 10
1003.57
 20
777.572
 30
0.0
 11
1003.57
 21
776.482
 31
0.0
  0
LINE
  8
0
 62
     250
 10
1003.57
 20
776.482
 30
0.0
 11
1003.15
 21
773.222
 31
0.0
  0
LINE
  8
0
 62
     250
 10
1003.15
 20
773.222
 30
0.0
 11
1001.94
 21
770.089
 31
0.0
  0
LINE
  8
0
 62
     250
 10
1001.94
 20
770.089
 30
0.0
 11
1000.02
 21
768.198
 31
0.0
  0
LINE
  8
0
 62
     250
 10
1000.02
 20
768.198
 30
0.0
 11
998.111
 21
767.563
 31
0.0
  0
LINE
  8
0
 62
     250
 10
998.111
 20
767.563
 30
0.0
 11
997.472
 21
767.563
 31
0.0
  0
LINE
  8
0
 62
     250
 10
997.472
 20
767.563
 30
0.0
 11
996.879
 21
767.563
 31
0.0
  0
LINE
  8
0
 62
     250
 10
996.879
 20
767.563
 30
0.0
 11
995.098
 21
768.191
 31
0.0
  0
LINE
  8
0
 62
     250
 10
995.098
 20
768.191
 30
0.0
 11
993.242
 21
770.057
 31
0.0
  0
LINE
  8
0
 62
     250
 10
993.242
 20
770.057
 30
0.0
 11
992.036
 21
773.113
 31
0.0
  0
LINE
  8
0
 62
     250
 10
992.036
 20
773.113
 30
0.0
 11
991.605
 21
776.266
 31
0.0
  0
LINE
  8
0
 62
     250
 10
991.605
 20
776.266
 30
0.0
 11
991.605
 21
777.318
 31
0.0
  0
LINE
  8
0
 62
     250
 10
850.106
 20
708.914
 30
0.0
 11
0.179145
 21
708.914
 31
0.0
  0
LINE
  8
0
 62
     250
 10
850.106
 20
0.176389
 30
0.0
 11
0.179145
 21
0.176389
 31
0.0
  0
LINE
  8
0
 62
     250
 10
40.1796
 20
5.16075
 30
0.0
 11
40.1796
 21
703.929
 31
0.0
  0
LINE
  8
0
 62
     250
 10
45.7895
 20
15.587
 30
0.0
 11
44.1304
 21
16.1906
 31
0.0
  0
LINE
  8
0
 62
     250
 10
44.1304
 20
16.1906
 30
0.0
 11
40.1796
 21
5.33301
 31
0.0
  0
LINE
  8
0
 62
     250
 10
40.1796
 20
5.33301
 30
0.0
 11
36.2271
 21
16.1906
 31
0.0
  0
LINE
  8
0
 62
     250
 10
36.2271
 20
16.1906
 30
0.0
 11
34.5695
 21
15.587
 31
0.0
  0
LINE
  8
0
 62
     250
 10
34.5695
 20
15.587
 30
0.0
 11
40.1796
 21
0.176389
 31
0.0
  0
LINE
  8
0
 62
     250
 10
40.1796
 20
0.176389
 30
0.0
 11
45.7895
 21
15.587
 31
0.0
  0
LINE
  8
0
 62
     250
 10
45.7895
 20
693.505
 30
0.0
 11
44.1304
 21
692.901
 31
0.0
  0
LINE
  8
0
 62
     250
 10
44.1304
 20
692.901
 30
0.0
 11
40.1796
 21
703.756
 31
0.0
  0
LINE
  8
0
 62
     250
 10
40.1796
 20
703.756
 30
0.0
 11
36.2271
 21
692.901
 31
0.0
  0
LINE
  8
0
 62
     250
 10
36.2271
 20
692.901
 30
0.0
 11
34.5695
 21
693.505
 31
0.0
  0
LINE
  8
0
 62
     250
 10
34.5695
 20
693.505
 30
0.0
 11
40.1796
 21
708.914
 31
0.0
  0
LINE
  8
0
 62
     250
 10
40.1796
 20
708.914
 30
0.0
 11
45.7895
 21
693.505
 31
0.0
  0
LINE
  8
0
 62
     250
 10
6.41202
 20
333.433
 30
0.0
 11
6.41202
 21
344.584
 31
0.0
  0
LINE
  8
0
 62
     250
 10
6.41202
 20
344.584
 30
0.0
 11
7.75836
 21
344.584
 31
0.0
  0
LINE
  8
0
 62
     250
 10
7.75836
 20
344.584
 30
0.0
 11
25.4386
 21
336.633
 31
0.0
  0
LINE
  8
0
 62
     250
 10
25.4386
 20
336.633
 30
0.0
 11
25.4386
 21
334.473
 31
0.0
  0
LINE
  8
0
 62
     250
 10
25.4386
 20
334.473
 30
0.0
 11
8.21588
 21
342.424
 31
0.0
  0
LINE
  8
0
 62
     250
 10
8.21588
 20
342.424
 30
0.0
 11
8.16487
 21
342.424
 31
0.0
  0
LINE
  8
0
 62
     250
 10
8.16487
 20
342.424
 30
0.0
 11
8.16487
 21
333.433
 31
0.0
  0
LINE
  8
0
 62
     250
 10
8.16487
 20
333.433
 30
0.0
 11
6.41202
 21
333.433
 31
0.0
  0
LINE
  8
0
 62
     250
 10
15.8364
 20
356.672
 30
0.0
 11
15.0206
 21
356.672
 31
0.0
  0
LINE
  8
0
 62
     250
 10
15.0206
 20
356.672
 30
0.0
 11
12.5773
 21
356.454
 31
0.0
  0
LINE
  8
0
 62
     250
 10
12.5773
 20
356.454
 30
0.0
 11
10.0404
 21
355.769
 31
0.0
  0
LINE
  8
0
 62
     250
 10
10.0404
 20
355.769
 30
0.0
 11
8.39502
 21
354.584
 31
0.0
  0
LINE
  8
0
 62
     250
 10
8.39502
 20
354.584
 30
0.0
 11
7.80934
 21
353.293
 31
0.0
  0
LINE
  8
0
 62
     250
 10
7.80934
 20
353.293
 30
0.0
 11
7.80934
 21
352.862
 31
0.0
  0
LINE
  8
0
 62
     250
 10
7.80934
 20
352.862
 30
0.0
 11
7.80934
 21
352.475
 31
0.0
  0
LINE
  8
0
 62
     250
 10
7.80934
 20
352.475
 30
0.0
 11
8.35918
 21
351.307
 31
0.0
  0
LINE
  8
0
 62
     250
 10
8.35918
 20
351.307
 30
0.0
 11
9.9453
 21
350.085
 31
0.0
  0
LINE
  8
0
 62
     250
 10
9.9453
 20
350.085
 30
0.0
 11
12.4699
 21
349.288
 31
0.0
  0
LINE
  8
0
 62
     250
 10
12.4699
 20
349.288
 30
0.0
 11
14.9944
 21
349.002
 31
0.0
  0
LINE
  8
0
 62
     250
 10
14.9944
 20
349.002
 30
0.0
 11
15.8364
 21
349.002
 31
0.0
  0
LINE
  8
0
 62
     250
 10
15.8364
 20
349.002
 30
0.0
 11
16.6825
 21
349.002
 31
0.0
  0
LINE
  8
0
 62
     250
 10
16.6825
 20
349.002
 30
0.0
 11
19.225
 21
349.258
 31
0.0
  0
LINE
  8
0
 62
     250
 10
19.225
 20
349.258
 30
0.0
 11
21.8019
 21
350
 31
0.0
  0
LINE
  8
0
 62
     250
 10
21.8019
 20
350
 30
0.0
 11
23.4404
 21
351.189
 31
0.0
  0
LINE
  8
0
 62
     250
 10
23.4404
 20
351.189
 30
0.0
 11
24.0151
 21
352.388
 31
0.0
  0
LINE
  8
0
 62
     250
 10
24.0151
 20
352.388
 30
0.0
 11
24.0151
 21
352.788
 31
0.0
  0
LINE
  8
0
 62
     250
 10
24.0151
 20
352.788
 30
0.0
 11
24.0151
 21
353.236
 31
0.0
  0
LINE
  8
0
 62
     250
 10
24.0151
 20
353.236
 30
0.0
 11
23.3729
 21
354.584
 31
0.0
  0
LINE
  8
0
 62
     250
 10
23.3729
 20
354.584
 30
0.0
 11
21.6201
 21
355.79
 31
0.0
  0
LINE
  8
0
 62
     250
 10
21.6201
 20
355.79
 30
0.0
 11
19.0211
 21
356.464
 31
0.0
  0
LINE
  8
0
 62
     250
 10
19.0211
 20
356.464
 30
0.0
 11
16.6315
 21
356.672
 31
0.0
  0
LINE
  8
0
 62
     250
 10
16.6315
 20
356.672
 30
0.0
 11
15.8364
 21
356.672
 31
0.0
  0
LINE
  8
0
 62
     250
 10
15.988
 20
346.844
 30
0.0
 11
14.8994
 21
346.844
 31
0.0
  0
LINE
  8
0
 62
     250
 10
14.8994
 20
346.844
 30
0.0
 11
11.6362
 21
347.305
 31
0.0
  0
LINE
  8
0
 62
     250
 10
11.6362
 20
347.305
 30
0.0
 11
8.55211
 21
348.584
 31
0.0
  0
LINE
  8
0
 62
     250
 10
8.55211
 20
348.584
 30
0.0
 11
6.7152
 21
350.53
 31
0.0
  0
LINE
  8
0
 62
     250
 10
6.7152
 20
350.53
 30
0.0
 11
6.10747
 21
352.375
 31
0.0
  0
LINE
  8
0
 62
     250
 10
6.10747
 20
352.375
 30
0.0
 11
6.10747
 21
352.989
 31
0.0
  0
LINE
  8
0
 62
     250
 10
6.10747
 20
352.989
 30
0.0
 11
6.10747
 21
353.6
 31
0.0
  0
LINE
  8
0
 62
     250
 10
6.10747
 20
353.6
 30
0.0
 11
6.73587
 21
355.424
 31
0.0
  0
LINE
  8
0
 62
     250
 10
6.73587
 20
355.424
 30
0.0
 11
8.58654
 21
357.251
 31
0.0
  0
LINE
  8
0
 62
     250
 10
8.58654
 20
357.251
 30
0.0
 11
11.6044
 21
358.408
 31
0.0
  0
LINE
  8
0
 62
     250
 10
11.6044
 20
358.408
 30
0.0
 11
14.7009
 21
358.807
 31
0.0
  0
LINE
  8
0
 62
     250
 10
14.7009
 20
358.807
 30
0.0
 11
15.7345
 21
358.807
 31
0.0
  0
LINE
  8
0
 62
     250
 10
15.7345
 20
358.807
 30
0.0
 11
16.8217
 21
358.807
 31
0.0
  0
LINE
  8
0
 62
     250
 10
16.8217
 20
358.807
 30
0.0
 11
20.0835
 21
358.387
 31
0.0
  0
LINE
  8
0
 62
     250
 10
20.0835
 20
358.387
 30
0.0
 11
23.2144
 21
357.18
 31
0.0
  0
LINE
  8
0
 62
     250
 10
23.2144
 20
357.18
 30
0.0
 11
25.1079
 21
355.261
 31
0.0
  0
LINE
  8
0
 62
     250
 10
25.1079
 20
355.261
 30
0.0
 11
25.7431
 21
353.349
 31
0.0
  0
LINE
  8
0
 62
     250
 10
25.7431
 20
353.349
 30
0.0
 11
25.7431
 21
352.712
 31
0.0
  0
LINE
  8
0
 62
     250
 10
25.7431
 20
352.712
 30
0.0
 11
25.7431
 21
352.119
 31
0.0
  0
LINE
  8
0
 62
     250
 10
25.7431
 20
352.119
 30
0.0
 11
25.112
 21
350.339
 31
0.0
  0
LINE
  8
0
 62
     250
 10
25.112
 20
350.339
 30
0.0
 11
23.2461
 21
348.482
 31
0.0
  0
LINE
  8
0
 62
     250
 10
23.2461
 20
348.482
 30
0.0
 11
20.191
 21
347.275
 31
0.0
  0
LINE
  8
0
 62
     250
 10
20.191
 20
347.275
 30
0.0
 11
17.0381
 21
346.844
 31
0.0
  0
LINE
  8
0
 62
     250
 10
17.0381
 20
346.844
 30
0.0
 11
15.988
 21
346.844
 31
0.0
  0
LINE
  8
0
 62
     250
 10
15.8364
 20
370.667
 30
0.0
 11
15.0206
 21
370.667
 31
0.0
  0
LINE
  8
0
 62
     250
 10
15.0206
 20
370.667
 30
0.0
 11
12.5773
 21
370.448
 31
0.0
  0
LINE
  8
0
 62
     250
 10
12.5773
 20
370.448
 30
0.0
 11
10.0404
 21
369.764
 31
0.0
  0
LINE
  8
0
 62
     250
 10
10.0404
 20
369.764
 30
0.0
 11
8.39502
 21
368.579
 31
0.0
  0
LINE
  8
0
 62
     250
 10
8.39502
 20
368.579
 30
0.0
 11
7.80934
 21
367.291
 31
0.0
  0
LINE
  8
0
 62
     250
 10
7.80934
 20
367.291
 30
0.0
 11
7.80934
 21
366.857
 31
0.0
  0
LINE
  8
0
 62
     250
 10
7.80934
 20
366.857
 30
0.0
 11
7.80934
 21
366.469
 31
0.0
  0
LINE
  8
0
 62
     250
 10
7.80934
 20
366.469
 30
0.0
 11
8.35918
 21
365.301
 31
0.0
  0
LINE
  8
0
 62
     250
 10
8.35918
 20
365.301
 30
0.0
 11
9.9453
 21
364.081
 31
0.0
  0
LINE
  8
0
 62
     250
 10
9.9453
 20
364.081
 30
0.0
 11
12.4699
 21
363.284
 31
0.0
  0
LINE
  8
0
 62
     250
 10
12.4699
 20
363.284
 30
0.0
 11
14.9944
 21
362.998
 31
0.0
  0
LINE
  8
0
 62
     250
 10
14.9944
 20
362.998
 30
0.0
 11
15.8364
 21
362.998
 31
0.0
  0
LINE
  8
0
 62
     250
 10
15.8364
 20
362.998
 30
0.0
 11
16.6825
 21
362.998
 31
0.0
  0
LINE
  8
0
 62
     250
 10
16.6825
 20
362.998
 30
0.0
 11
19.225
 21
363.255
 31
0.0
  0
LINE
  8
0
 62
     250
 10
19.225
 20
363.255
 30
0.0
 11
21.8019
 21
363.996
 31
0.0
  0
LINE
  8
0
 62
     250
 10
21.8019
 20
363.996
 30
0.0
 11
23.4404
 21
365.185
 31
0.0
  0
LINE
  8
0
 62
     250
 10
23.4404
 20
365.185
 30
0.0
 11
24.0151
 21
366.384
 31
0.0
  0
LINE
  8
0
 62
     250
 10
24.0151
 20
366.384
 30
0.0
 11
24.0151
 21
366.783
 31
0.0
  0
LINE
  8
0
 62
     250
 10
24.0151
 20
366.783
 30
0.0
 11
24.0151
 21
367.231
 31
0.0
  0
LINE
  8
0
 62
     250
 10
24.0151
 20
367.231
 30
0.0
 11
23.3729
 21
368.579
 31
0.0
  0
LINE
  8
0
 62
     250
 10
23.3729
 20
368.579
 30
0.0
 11
21.6201
 21
369.785
 31
0.0
  0
LINE
  8
0
 62
     250
 10
21.6201
 20
369.785
 30
0.0
 11
19.0211
 21
370.459
 31
0.0
  0
LINE
  8
0
 62
     250
 10
19.0211
 20
370.459
 30
0.0
 11
16.6315
 21
370.667
 31
0.0
  0
LINE
  8
0
 62
     250
 10
16.6315
 20
370.667
 30
0.0
 11
15.8364
 21
370.667
 31
0.0
  0
LINE
  8
0
 62
     250
 10
15.988
 20
360.839
 30
0.0
 11
14.8994
 21
360.839
 31
0.0
  0
LINE
  8
0
 62
     250
 10
14.8994
 20
360.839
 30
0.0
 11
11.6362
 21
361.301
 31
0.0
  0
LINE
  8
0
 62
     250
 10
11.6362
 20
361.301
 30
0.0
 11
8.55211
 21
362.581
 31
0.0
  0
LINE
  8
0
 62
     250
 10
8.55211
 20
362.581
 30
0.0
 11
6.7152
 21
364.525
 31
0.0
  0
LINE
  8
0
 62
     250
 10
6.7152
 20
364.525
 30
0.0
 11
6.10747
 21
366.37
 31
0.0
  0
LINE
  8
0
 62
     250
 10
6.10747
 20
366.37
 30
0.0
 11
6.10747
 21
366.984
 31
0.0
  0
LINE
  8
0
 62
     250
 10
6.10747
 20
366.984
 30
0.0
 11
6.10747
 21
367.594
 31
0.0
  0
LINE
  8
0
 62
     250
 10
6.10747
 20
367.594
 30
0.0
 11
6.73587
 21
369.418
 31
0.0
  0
LINE
  8
0
 62
     250
 10
6.73587
 20
369.418
 30
0.0
 11
8.58654
 21
371.249
 31
0.0
  0
LINE
  8
0
 62
     250
 10
8.58654
 20
371.249
 30
0.0
 11
11.6044
 21
372.403
 31
0.0
  0
LINE
  8
0
 62
     250
 10
11.6044
 20
372.403
 30
0.0
 11
14.7009
 21
372.805
 31
0.0
  0
LINE
  8
0
 62
     250
 10
14.7009
 20
372.805
 30
0.0
 11
15.7345
 21
372.805
 31
0.0
  0
LINE
  8
0
 62
     250
 10
15.7345
 20
372.805
 30
0.0
 11
16.8217
 21
372.805
 31
0.0
  0
LINE
  8
0
 62
     250
 10
16.8217
 20
372.805
 30
0.0
 11
20.0835
 21
372.382
 31
0.0
  0
LINE
  8
0
 62
     250
 10
20.0835
 20
372.382
 30
0.0
 11
23.2144
 21
371.175
 31
0.0
  0
LINE
  8
0
 62
     250
 10
23.2144
 20
371.175
 30
0.0
 11
25.1079
 21
369.256
 31
0.0
  0
LINE
  8
0
 62
     250
 10
25.1079
 20
369.256
 30
0.0
 11
25.7431
 21
367.344
 31
0.0
  0
LINE
  8
0
 62
     250
 10
25.7431
 20
367.344
 30
0.0
 11
25.7431
 21
366.705
 31
0.0
  0
LINE
  8
0
 62
     250
 10
25.7431
 20
366.705
 30
0.0
 11
25.7431
 21
366.113
 31
0.0
  0
LINE
  8
0
 62
     250
 10
25.7431
 20
366.113
 30
0.0
 11
25.112
 21
364.335
 31
0.0
  0
LINE
  8
0
 62
     250
 10
25.112
 20
364.335
 30
0.0
 11
23.2461
 21
362.479
 31
0.0
  0
LINE
  8
0
 62
     250
 10
23.2461
 20
362.479
 30
0.0
 11
20.191
 21
361.269
 31
0.0
  0
LINE
  8
0
 62
     250
 10
20.191
 20
361.269
 30
0.0
 11
17.0381
 21
360.839
 31
0.0
  0
LINE
  8
0
 62
     250
 10
17.0381
 20
360.839
 30
0.0
 11
15.988
 21
360.839
 31
0.0
  0
LINE
  8
0
 62
     250
 10
2036.97
 20
607.533
 30
0.0
 11
1579.7
 21
607.533
 31
0.0
  0
LINE
  8
0
 62
     250
 10
2036.97
 20
25.5943
 30
0.0
 11
1579.7
 21
25.5943
 31
0.0
  0
LINE
  8
0
 62
     250
 10
1996.97
 20
30.5787
 30
0.0
 11
1996.97
 21
602.552
 31
0.0
  0
LINE
  8
0
 62
     250
 10
2002.58
 20
41.0048
 30
0.0
 11
2000.92
 21
41.6084
 31
0.0
  0
LINE
  8
0
 62
     250
 10
2000.92
 20
41.6084
 30
0.0
 11
1996.97
 21
30.7509
 31
0.0
  0
LINE
  8
0
 62
     250
 10
1996.97
 20
30.7509
 30
0.0
 11
1993.02
 21
41.6084
 31
0.0
  0
LINE
  8
0
 62
     250
 10
1993.02
 20
41.6084
 30
0.0
 11
1991.36
 21
41.0048
 31
0.0
  0
LINE
  8
0
 62
     250
 10
1991.36
 20
41.0048
 30
0.0
 11
1996.97
 21
25.5943
 31
0.0
  0
LINE
  8
0
 62
     250
 10
1996.97
 20
25.5943
 30
0.0
 11
2002.58
 21
41.0048
 31
0.0
  0
LINE
  8
0
 62
     250
 10
2002.58
 20
592.123
 30
0.0
 11
2000.92
 21
591.52
 31
0.0
  0
LINE
  8
0
 62
     250
 10
2000.92
 20
591.52
 30
0.0
 11
1996.97
 21
602.379
 31
0.0
  0
LINE
  8
0
 62
     250
 10
1996.97
 20
602.379
 30
0.0
 11
1993.02
 21
591.52
 31
0.0
  0
LINE
  8
0
 62
     250
 10
1993.02
 20
591.52
 30
0.0
 11
1991.36
 21
592.123
 31
0.0
  0
LINE
  8
0
 62
     250
 10
1991.36
 20
592.123
 30
0.0
 11
1996.97
 21
607.533
 31
0.0
  0
LINE
  8
0
 62
     250
 10
1996.97
 20
607.533
 30
0.0
 11
2002.58
 21
592.123
 31
0.0
  0
LINE
  8
0
 62
     250
 10
1965.29
 20
312.711
 30
0.0
 11
1967.04
 21
312.711
 31
0.0
  0
LINE
  8
0
 62
     250
 10
1967.04
 20
312.711
 30
0.0
 11
1967.04
 21
305.879
 31
0.0
  0
LINE
  8
0
 62
     250
 10
1967.04
 20
305.879
 30
0.0
 11
1972.43
 21
305.091
 31
0.0
  0
LINE
  8
0
 62
     250
 10
1972.43
 20
305.091
 30
0.0
 11
1972.41
 21
305.193
 31
0.0
  0
LINE
  8
0
 62
     250
 10
1972.41
 20
305.193
 30
0.0
 11
1972.36
 21
305.733
 31
0.0
  0
LINE
  8
0
 62
     250
 10
1972.36
 20
305.733
 30
0.0
 11
1972.33
 21
306.357
 31
0.0
  0
LINE
  8
0
 62
     250
 10
1972.33
 20
306.357
 30
0.0
 11
1972.33
 21
306.564
 31
0.0
  0
LINE
  8
0
 62
     250
 10
1972.33
 20
306.564
 30
0.0
 11
1972.33
 21
307.172
 31
0.0
  0
LINE
  8
0
 62
     250
 10
1972.33
 20
307.172
 30
0.0
 11
1972.7
 21
308.991
 31
0.0
  0
LINE
  8
0
 62
     250
 10
1972.7
 20
308.991
 30
0.0
 11
1973.81
 21
311.033
 31
0.0
  0
LINE
  8
0
 62
     250
 10
1973.81
 20
311.033
 30
0.0
 11
1975.64
 21
312.441
 31
0.0
  0
LINE
  8
0
 62
     250
 10
1975.64
 20
312.441
 30
0.0
 11
1977.53
 21
312.966
 31
0.0
  0
LINE
  8
0
 62
     250
 10
1977.53
 20
312.966
 30
0.0
 11
1978.17
 21
312.966
 31
0.0
  0
LINE
  8
0
 62
     250
 10
1978.17
 20
312.966
 30
0.0
 11
1978.82
 21
312.966
 31
0.0
  0
LINE
  8
0
 62
     250
 10
1978.82
 20
312.966
 30
0.0
 11
1980.76
 21
312.471
 31
0.0
  0
LINE
  8
0
 62
     250
 10
1980.76
 20
312.471
 30
0.0
 11
1982.81
 21
311.099
 31
0.0
  0
LINE
  8
0
 62
     250
 10
1982.81
 20
311.099
 30
0.0
 11
1984.14
 21
309.022
 31
0.0
  0
LINE
  8
0
 62
     250
 10
1984.14
 20
309.022
 30
0.0
 11
1984.62
 21
307.066
 31
0.0
  0
LINE
  8
0
 62
     250
 10
1984.62
 20
307.066
 30
0.0
 11
1984.62
 21
306.412
 31
0.0
  0
LINE
  8
0
 62
     250
 10
1984.62
 20
306.412
 30
0.0
 11
1984.62
 21
306.072
 31
0.0
  0
LINE
  8
0
 62
     250
 10
1984.62
 20
306.072
 30
0.0
 11
1984.52
 21
305.048
 31
0.0
  0
LINE
  8
0
 62
     250
 10
1984.52
 20
305.048
 30
0.0
 11
1984.27
 21
303.837
 31
0.0
  0
LINE
  8
0
 62
     250
 10
1984.27
 20
303.837
 30
0.0
 11
1983.91
 21
302.823
 31
0.0
  0
LINE
  8
0
 62
     250
 10
1983.91
 20
302.823
 30
0.0
 11
1983.62
 21
302.227
 31
0.0
  0
LINE
  8
0
 62
     250
 10
1983.62
 20
302.227
 30
0.0
 11
1983.5
 21
302.043
 31
0.0
  0
LINE
  8
0
 62
     250
 10
1983.5
 20
302.043
 30
0.0
 11
1981.85
 21
302.653
 31
0.0
  0
LINE
  8
0
 62
     250
 10
1981.85
 20
302.653
 30
0.0
 11
1981.96
 21
302.809
 31
0.0
  0
LINE
  8
0
 62
     250
 10
1981.96
 20
302.809
 30
0.0
 11
1982.22
 21
303.309
 31
0.0
  0
LINE
  8
0
 62
     250
 10
1982.22
 20
303.309
 30
0.0
 11
1982.57
 21
304.181
 31
0.0
  0
LINE
  8
0
 62
     250
 10
1982.57
 20
304.181
 30
0.0
 11
1982.82
 21
305.229
 31
0.0
  0
LINE
  8
0
 62
     250
 10
1982.82
 20
305.229
 30
0.0
 11
1982.92
 21
306.117
 31
0.0
  0
LINE
  8
0
 62
     250
 10
1982.92
 20
306.117
 30
0.0
 11
1982.92
 21
306.412
 31
0.0
  0
LINE
  8
0
 62
     250
 10
1982.92
 20
306.412
 30
0.0
 11
1982.92
 21
306.631
 31
0.0
  0
LINE
  8
0
 62
     250
 10
1982.92
 20
306.631
 30
0.0
 11
1982.84
 21
307.289
 31
0.0
  0
LINE
  8
0
 62
     250
 10
1982.84
 20
307.289
 30
0.0
 11
1982.6
 21
308.114
 31
0.0
  0
LINE
  8
0
 62
     250
 10
1982.6
 20
308.114
 30
0.0
 11
1982.22
 21
308.866
 31
0.0
  0
LINE
  8
0
 62
     250
 10
1982.22
 20
308.866
 30
0.0
 11
1981.7
 21
309.528
 31
0.0
  0
LINE
  8
0
 62
     250
 10
1981.7
 20
309.528
 30
0.0
 11
1981.05
 21
310.075
 31
0.0
  0
LINE
  8
0
 62
     250
 10
1981.05
 20
310.075
 30
0.0
 11
1980.28
 21
310.489
 31
0.0
  0
LINE
  8
0
 62
     250
 10
1980.28
 20
310.489
 30
0.0
 11
1979.4
 21
310.747
 31
0.0
  0
LINE
  8
0
 62
     250
 10
1979.4
 20
310.747
 30
0.0
 11
1978.67
 21
310.834
 31
0.0
  0
LINE
  8
0
 62
     250
 10
1978.67
 20
310.834
 30
0.0
 11
1978.42
 21
310.832
 31
0.0
  0
LINE
  8
0
 62
     250
 10
1978.42
 20
310.832
 30
0.0
 11
1977.97
 21
310.832
 31
0.0
  0
LINE
  8
0
 62
     250
 10
1977.97
 20
310.832
 30
0.0
 11
1976.62
 21
310.515
 31
0.0
  0
LINE
  8
0
 62
     250
 10
1976.62
 20
310.515
 30
0.0
 11
1975.22
 21
309.55
 31
0.0
  0
LINE
  8
0
 62
     250
 10
1975.22
 20
309.55
 30
0.0
 11
1974.3
 21
307.919
 31
0.0
  0
LINE
  8
0
 62
     250
 10
1974.3
 20
307.919
 30
0.0
 11
1973.98
 21
306.179
 31
0.0
  0
LINE
  8
0
 62
     250
 10
1973.98
 20
306.179
 30
0.0
 11
1973.98
 21
305.599
 31
0.0
  0
LINE
  8
0
 62
     250
 10
1973.98
 20
305.599
 30
0.0
 11
1973.98
 21
305.259
 31
0.0
  0
LINE
  8
0
 62
     250
 10
1973.98
 20
305.259
 30
0.0
 11
1974.03
 21
304.238
 31
0.0
  0
LINE
  8
0
 62
     250
 10
1974.03
 20
304.238
 30
0.0
 11
1974.13
 21
303.32
 31
0.0
  0
LINE
  8
0
 62
     250
 10
1974.13
 20
303.32
 30
0.0
 11
1974.15
 21
303.16
 31
0.0
  0
LINE
  8
0
 62
     250
 10
1974.15
 20
303.16
 30
0.0
 11
1965.29
 21
304.355
 31
0.0
  0
LINE
  8
0
 62
     250
 10
1965.29
 20
304.355
 30
0.0
 11
1965.29
 21
312.711
 31
0.0
  0
LINE
  8
0
 62
     250
 10
1969.73
 20
318.706
 30
0.0
 11
1970.07
 21
318.702
 31
0.0
  0
LINE
  8
0
 62
     250
 10
1970.07
 20
318.702
 30
0.0
 11
1971.09
 21
318.951
 31
0.0
  0
LINE
  8
0
 62
     250
 10
1971.09
 20
318.951
 30
0.0
 11
1972.15
 21
319.672
 31
0.0
  0
LINE
  8
0
 62
     250
 10
1972.15
 20
319.672
 30
0.0
 11
1972.95
 21
320.792
 31
0.0
  0
LINE
  8
0
 62
     250
 10
1972.95
 20
320.792
 30
0.0
 11
1973.41
 21
321.867
 31
0.0
  0
LINE
  8
0
 62
     250
 10
1973.41
 20
321.867
 30
0.0
 11
1973.52
 21
322.236
 31
0.0
  0
LINE
  8
0
 62
     250
 10
1973.52
 20
322.236
 30
0.0
 11
1973.4
 21
322.537
 31
0.0
  0
LINE
  8
0
 62
     250
 10
1973.4
 20
322.537
 30
0.0
 11
1972.92
 21
323.386
 31
0.0
  0
LINE
  8
0
 62
     250
 10
1972.92
 20
323.386
 30
0.0
 11
1972.09
 21
324.305
 31
0.0
  0
LINE
  8
0
 62
     250
 10
1972.09
 20
324.305
 30
0.0
 11
1971.04
 21
324.914
 31
0.0
  0
LINE
  8
0
 62
     250
 10
1971.04
 20
324.914
 30
0.0
 11
1970.1
 21
325.133
 31
0.0
  0
LINE
  8
0
 62
     250
 10
1970.1
 20
325.133
 30
0.0
 11
1969.78
 21
325.133
 31
0.0
  0
LINE
  8
0
 62
     250
 10
1969.78
 20
325.133
 30
0.0
 11
1969.49
 21
325.133
 31
0.0
  0
LINE
  8
0
 62
     250
 10
1969.49
 20
325.133
 30
0.0
 11
1968.6
 21
324.959
 31
0.0
  0
LINE
  8
0
 62
     250
 10
1968.6
 20
324.959
 30
0.0
 11
1967.56
 21
324.41
 31
0.0
  0
LINE
  8
0
 62
     250
 10
1967.56
 20
324.41
 30
0.0
 11
1966.82
 21
323.439
 31
0.0
  0
LINE
  8
0
 62
     250
 10
1966.82
 20
323.439
 30
0.0
 11
1966.54
 21
322.366
 31
0.0
  0
LINE
  8
0
 62
     250
 10
1966.54
 20
322.366
 30
0.0
 11
1966.54
 21
322.007
 31
0.0
  0
LINE
  8
0
 62
     250
 10
1966.54
 20
322.007
 30
0.0
 11
1966.54
 21
321.647
 31
0.0
  0
LINE
  8
0
 62
     250
 10
1966.54
 20
321.647
 30
0.0
 11
1966.8
 21
320.561
 31
0.0
  0
LINE
  8
0
 62
     250
 10
1966.8
 20
320.561
 30
0.0
 11
1967.52
 21
319.528
 31
0.0
  0
LINE
  8
0
 62
     250
 10
1967.52
 20
319.528
 30
0.0
 11
1968.54
 21
318.911
 31
0.0
  0
LINE
  8
0
 62
     250
 10
1968.54
 20
318.911
 30
0.0
 11
1969.43
 21
318.706
 31
0.0
  0
LINE
  8
0
 62
     250
 10
1969.43
 20
318.706
 30
0.0
 11
1969.73
 21
318.706
 31
0.0
  0
LINE
  8
0
 62
     250
 10
1979.41
 20
325.691
 30
0.0
 11
1979.02
 21
325.691
 31
0.0
  0
LINE
  8
0
 62
     250
 10
1979.02
 20
325.691
 30
0.0
 11
1977.83
 21
325.403
 31
0.0
  0
LINE
  8
0
 62
     250
 10
1977.83
 20
325.403
 30
0.0
 11
1976.61
 21
324.578
 31
0.0
  0
LINE
  8
0
 62
     250
 10
1976.61
 20
324.578
 30
0.0
 11
1975.69
 21
323.281
 31
0.0
  0
LINE
  8
0
 62
     250
 10
1975.69
 20
323.281
 30
0.0
 11
1975.13
 21
322.013
 31
0.0
  0
LINE
  8
0
 62
     250
 10
1975.13
 20
322.013
 30
0.0
 11
1974.99
 21
321.576
 31
0.0
  0
LINE
  8
0
 62
     250
 10
1974.99
 20
321.576
 30
0.0
 11
1975.12
 21
321.19
 31
0.0
  0
LINE
  8
0
 62
     250
 10
1975.12
 20
321.19
 30
0.0
 11
1975.7
 21
320.097
 31
0.0
  0
LINE
  8
0
 62
     250
 10
1975.7
 20
320.097
 30
0.0
 11
1976.68
 21
319.024
 31
0.0
  0
LINE
  8
0
 62
     250
 10
1976.68
 20
319.024
 30
0.0
 11
1977.88
 21
318.368
 31
0.0
  0
LINE
  8
0
 62
     250
 10
1977.88
 20
318.368
 30
0.0
 11
1978.9
 21
318.146
 31
0.0
  0
LINE
  8
0
 62
     250
 10
1978.9
 20
318.146
 30
0.0
 11
1979.24
 21
318.146
 31
0.0
  0
LINE
  8
0
 62
     250
 10
1979.24
 20
318.146
 30
0.0
 11
1979.61
 21
318.146
 31
0.0
  0
LINE
  8
0
 62
     250
 10
1979.61
 20
318.146
 30
0.0
 11
1980.74
 21
318.409
 31
0.0
  0
LINE
  8
0
 62
     250
 10
1980.74
 20
318.409
 30
0.0
 11
1981.95
 21
319.156
 31
0.0
  0
LINE
  8
0
 62
     250
 10
1981.95
 20
319.156
 30
0.0
 11
1982.75
 21
320.333
 31
0.0
  0
LINE
  8
0
 62
     250
 10
1982.75
 20
320.333
 30
0.0
 11
1983.05
 21
321.495
 31
0.0
  0
LINE
  8
0
 62
     250
 10
1983.05
 20
321.495
 30
0.0
 11
1983.05
 21
321.881
 31
0.0
  0
LINE
  8
0
 62
     250
 10
1983.05
 20
321.881
 30
0.0
 11
1983.05
 21
322.287
 31
0.0
  0
LINE
  8
0
 62
     250
 10
1983.05
 20
322.287
 30
0.0
 11
1982.76
 21
323.505
 31
0.0
  0
LINE
  8
0
 62
     250
 10
1982.76
 20
323.505
 30
0.0
 11
1981.97
 21
324.702
 31
0.0
  0
LINE
  8
0
 62
     250
 10
1981.97
 20
324.702
 30
0.0
 11
1980.82
 21
325.439
 31
0.0
  0
LINE
  8
0
 62
     250
 10
1980.82
 20
325.439
 30
0.0
 11
1979.76
 21
325.691
 31
0.0
  0
LINE
  8
0
 62
     250
 10
1979.76
 20
325.691
 30
0.0
 11
1979.41
 21
325.691
 31
0.0
  0
LINE
  8
0
 62
     250
 10
1974.23
 20
319.67
 30
0.0
 11
1974.06
 21
319.316
 31
0.0
  0
LINE
  8
0
 62
     250
 10
1974.06
 20
319.316
 30
0.0
 11
1973.37
 21
318.339
 31
0.0
  0
LINE
  8
0
 62
     250
 10
1973.37
 20
318.339
 30
0.0
 11
1972.32
 21
317.415
 31
0.0
  0
LINE
  8
0
 62
     250
 10
1972.32
 20
317.415
 30
0.0
 11
1971.16
 21
316.875
 31
0.0
  0
LINE
  8
0
 62
     250
 10
1971.16
 20
316.875
 30
0.0
 11
1970.24
 21
316.699
 31
0.0
  0
LINE
  8
0
 62
     250
 10
1970.24
 20
316.699
 30
0.0
 11
1969.94
 21
316.699
 31
0.0
  0
LINE
  8
0
 62
     250
 10
1969.94
 20
316.699
 30
0.0
 11
1969.67
 21
316.699
 31
0.0
  0
LINE
  8
0
 62
     250
 10
1969.67
 20
316.699
 30
0.0
 11
1968.88
 21
316.805
 31
0.0
  0
LINE
  8
0
 62
     250
 10
1968.88
 20
316.805
 30
0.0
 11
1967.92
 21
317.109
 31
0.0
  0
LINE
  8
0
 62
     250
 10
1967.92
 20
317.109
 30
0.0
 11
1967.07
 21
317.594
 31
0.0
  0
LINE
  8
0
 62
     250
 10
1967.07
 20
317.594
 30
0.0
 11
1966.36
 21
318.24
 31
0.0
  0
LINE
  8
0
 62
     250
 10
1966.36
 20
318.24
 30
0.0
 11
1965.77
 21
319.03
 31
0.0
  0
LINE
  8
0
 62
     250
 10
1965.77
 20
319.03
 30
0.0
 11
1965.34
 21
319.946
 31
0.0
  0
LINE
  8
0
 62
     250
 10
1965.34
 20
319.946
 30
0.0
 11
1965.07
 21
320.97
 31
0.0
  0
LINE
  8
0
 62
     250
 10
1965.07
 20
320.97
 30
0.0
 11
1964.99
 21
321.805
 31
0.0
  0
LINE
  8
0
 62
     250
 10
1964.99
 20
321.805
 30
0.0
 11
1964.99
 21
322.083
 31
0.0
  0
LINE
  8
0
 62
     250
 10
1964.99
 20
322.083
 30
0.0
 11
1964.99
 21
322.387
 31
0.0
  0
LINE
  8
0
 62
     250
 10
1964.99
 20
322.387
 30
0.0
 11
1965.09
 21
323.296
 31
0.0
  0
LINE
  8
0
 62
     250
 10
1965.09
 20
323.296
 30
0.0
 11
1965.38
 21
324.341
 31
0.0
  0
LINE
  8
0
 62
     250
 10
1965.38
 20
324.341
 30
0.0
 11
1965.84
 21
325.218
 31
0.0
  0
LINE
  8
0
 62
     250
 10
1965.84
 20
325.218
 30
0.0
 11
1966.44
 21
325.934
 31
0.0
  0
LINE
  8
0
 62
     250
 10
1966.44
 20
325.934
 30
0.0
 11
1967.14
 21
326.486
 31
0.0
  0
LINE
  8
0
 62
     250
 10
1967.14
 20
326.486
 30
0.0
 11
1967.92
 21
326.879
 31
0.0
  0
LINE
  8
0
 62
     250
 10
1967.92
 20
326.879
 30
0.0
 11
1968.75
 21
327.113
 31
0.0
  0
LINE
  8
0
 62
     250
 10
1968.75
 20
327.113
 30
0.0
 11
1969.39
 21
327.19
 31
0.0
  0
LINE
  8
0
 62
     250
 10
1969.39
 20
327.19
 30
0.0
 11
1969.61
 21
327.19
 31
0.0
  0
LINE
  8
0
 62
     250
 10
1969.61
 20
327.19
 30
0.0
 11
1969.92
 21
327.19
 31
0.0
  0
LINE
  8
0
 62
     250
 10
1969.92
 20
327.19
 30
0.0
 11
1970.84
 21
327.021
 31
0.0
  0
LINE
  8
0
 62
     250
 10
1970.84
 20
327.021
 30
0.0
 11
1972.06
 21
326.476
 31
0.0
  0
LINE
  8
0
 62
     250
 10
1972.06
 20
326.476
 30
0.0
 11
1973.17
 21
325.508
 31
0.0
  0
LINE
  8
0
 62
     250
 10
1973.17
 20
325.508
 30
0.0
 11
1973.92
 21
324.449
 31
0.0
  0
LINE
  8
0
 62
     250
 10
1973.92
 20
324.449
 30
0.0
 11
1974.11
 21
324.065
 31
0.0
  0
LINE
  8
0
 62
     250
 10
1974.11
 20
324.065
 30
0.0
 11
1974.21
 21
324.065
 31
0.0
  0
LINE
  8
0
 62
     250
 10
1974.21
 20
324.065
 30
0.0
 11
1974.38
 21
324.478
 31
0.0
  0
LINE
  8
0
 62
     250
 10
1974.38
 20
324.478
 30
0.0
 11
1975.08
 21
325.643
 31
0.0
  0
LINE
  8
0
 62
     250
 10
1975.08
 20
325.643
 30
0.0
 11
1976.21
 21
326.835
 31
0.0
  0
LINE
  8
0
 62
     250
 10
1976.21
 20
326.835
 30
0.0
 11
1977.58
 21
327.589
 31
0.0
  0
LINE
  8
0
 62
     250
 10
1977.58
 20
327.589
 30
0.0
 11
1978.78
 21
327.851
 31
0.0
  0
LINE
  8
0
 62
     250
 10
1978.78
 20
327.851
 30
0.0
 11
1979.19
 21
327.851
 31
0.0
  0
LINE
  8
0
 62
     250
 10
1979.19
 20
327.851
 30
0.0
 11
1979.74
 21
327.851
 31
0.0
  0
LINE
  8
0
 62
     250
 10
1979.74
 20
327.851
 30
0.0
 11
1981.39
 21
327.386
 31
0.0
  0
LINE
  8
0
 62
     250
 10
1981.39
 20
327.386
 30
0.0
 11
1983.11
 21
326.111
 31
0.0
  0
LINE
  8
0
 62
     250
 10
1983.11
 20
326.111
 30
0.0
 11
1984.22
 21
324.208
 31
0.0
  0
LINE
  8
0
 62
     250
 10
1984.22
 20
324.208
 30
0.0
 11
1984.62
 21
322.445
 31
0.0
  0
LINE
  8
0
 62
     250
 10
1984.62
 20
322.445
 30
0.0
 11
1984.62
 21
321.856
 31
0.0
  0
LINE
  8
0
 62
     250
 10
1984.62
 20
321.856
 30
0.0
 11
1984.62
 21
321.244
 31
0.0
  0
LINE
  8
0
 62
     250
 10
1984.62
 20
321.244
 30
0.0
 11
1984.22
 21
319.407
 31
0.0
  0
LINE
  8
0
 62
     250
 10
1984.22
 20
319.407
 30
0.0
 11
1983.12
 21
317.561
 31
0.0
  0
LINE
  8
0
 62
     250
 10
1983.12
 20
317.561
 30
0.0
 11
1981.51
 21
316.395
 31
0.0
  0
LINE
  8
0
 62
     250
 10
1981.51
 20
316.395
 30
0.0
 11
1980.05
 21
315.988
 31
0.0
  0
LINE
  8
0
 62
     250
 10
1980.05
 20
315.988
 30
0.0
 11
1979.57
 21
315.988
 31
0.0
  0
LINE
  8
0
 62
     250
 10
1979.57
 20
315.988
 30
0.0
 11
1979.14
 21
315.988
 31
0.0
  0
LINE
  8
0
 62
     250
 10
1979.14
 20
315.988
 30
0.0
 11
1977.85
 21
316.254
 31
0.0
  0
LINE
  8
0
 62
     250
 10
1977.85
 20
316.254
 30
0.0
 11
1976.4
 21
317.001
 31
0.0
  0
LINE
  8
0
 62
     250
 10
1976.4
 20
317.001
 30
0.0
 11
1975.22
 21
318.164
 31
0.0
  0
LINE
  8
0
 62
     250
 10
1975.22
 20
318.164
 30
0.0
 11
1974.51
 21
319.275
 31
0.0
  0
LINE
  8
0
 62
     250
 10
1974.51
 20
319.275
 30
0.0
 11
1974.33
 21
319.67
 31
0.0
  0
LINE
  8
0
 62
     250
 10
1974.33
 20
319.67
 30
0.0
 11
1974.23
 21
319.67
 31
0.0
  0
LINE
  8
0
 62
     250
 10
1974.71
 20
339.737
 30
0.0
 11
1973.9
 21
339.737
 31
0.0
  0
LINE
  8
0
 62
     250
 10
1973.9
 20
339.737
 30
0.0
 11
1971.46
 21
339.518
 31
0.0
  0
LINE
  8
0
 62
     250
 10
1971.46
 20
339.518
 30
0.0
 11
1968.92
 21
338.834
 31
0.0
  0
LINE
  8
0
 62
     250
 10
1968.92
 20
338.834
 30
0.0
 11
1967.27
 21
337.648
 31
0.0
  0
LINE
  8
0
 62
     250
 10
1967.27
 20
337.648
 30
0.0
 11
1966.69
 21
336.358
 31
0.0
  0
LINE
  8
0
 62
     250
 10
1966.69
 20
336.358
 30
0.0
 11
1966.69
 21
335.927
 31
0.0
  0
LINE
  8
0
 62
     250
 10
1966.69
 20
335.927
 30
0.0
 11
1966.69
 21
335.539
 31
0.0
  0
LINE
  8
0
 62
     250
 10
1966.69
 20
335.539
 30
0.0
 11
1967.24
 21
334.37
 31
0.0
  0
LINE
  8
0
 62
     250
 10
1967.24
 20
334.37
 30
0.0
 11
1968.82
 21
333.149
 31
0.0
  0
LINE
  8
0
 62
     250
 10
1968.82
 20
333.149
 30
0.0
 11
1971.35
 21
332.353
 31
0.0
  0
LINE
  8
0
 62
     250
 10
1971.35
 20
332.353
 30
0.0
 11
1973.87
 21
332.066
 31
0.0
  0
LINE
  8
0
 62
     250
 10
1973.87
 20
332.066
 30
0.0
 11
1974.71
 21
332.066
 31
0.0
  0
LINE
  8
0
 62
     250
 10
1974.71
 20
332.066
 30
0.0
 11
1975.56
 21
332.066
 31
0.0
  0
LINE
  8
0
 62
     250
 10
1975.56
 20
332.066
 30
0.0
 11
1978.1
 21
332.322
 31
0.0
  0
LINE
  8
0
 62
     250
 10
1978.1
 20
332.322
 30
0.0
 11
1980.68
 21
333.064
 31
0.0
  0
LINE
  8
0
 62
     250
 10
1980.68
 20
333.064
 30
0.0
 11
1982.32
 21
334.253
 31
0.0
  0
LINE
  8
0
 62
     250
 10
1982.32
 20
334.253
 30
0.0
 11
1982.89
 21
335.452
 31
0.0
  0
LINE
  8
0
 62
     250
 10
1982.89
 20
335.452
 30
0.0
 11
1982.89
 21
335.85
 31
0.0
  0
LINE
  8
0
 62
     250
 10
1982.89
 20
335.85
 30
0.0
 11
1982.89
 21
336.301
 31
0.0
  0
LINE
  8
0
 62
     250
 10
1982.89
 20
336.301
 30
0.0
 11
1982.25
 21
337.648
 31
0.0
  0
LINE
  8
0
 62
     250
 10
1982.25
 20
337.648
 30
0.0
 11
1980.5
 21
338.853
 31
0.0
  0
LINE
  8
0
 62
     250
 10
1980.5
 20
338.853
 30
0.0
 11
1977.9
 21
339.528
 31
0.0
  0
LINE
  8
0
 62
     250
 10
1977.9
 20
339.528
 30
0.0
 11
1975.51
 21
339.737
 31
0.0
  0
LINE
  8
0
 62
     250
 10
1975.51
 20
339.737
 30
0.0
 11
1974.71
 21
339.737
 31
0.0
  0
LINE
  8
0
 62
     250
 10
1974.87
 20
329.907
 30
0.0
 11
1973.78
 21
329.907
 31
0.0
  0
LINE
  8
0
 62
     250
 10
1973.78
 20
329.907
 30
0.0
 11
1970.51
 21
330.368
 31
0.0
  0
LINE
  8
0
 62
     250
 10
1970.51
 20
330.368
 30
0.0
 11
1967.43
 21
331.647
 31
0.0
  0
LINE
  8
0
 62
     250
 10
1967.43
 20
331.647
 30
0.0
 11
1965.59
 21
333.594
 31
0.0
  0
LINE
  8
0
 62
     250
 10
1965.59
 20
333.594
 30
0.0
 11
1964.99
 21
335.439
 31
0.0
  0
LINE
  8
0
 62
     250
 10
1964.99
 20
335.439
 30
0.0
 11
1964.99
 21
336.054
 31
0.0
  0
LINE
  8
0
 62
     250
 10
1964.99
 20
336.054
 30
0.0
 11
1964.99
 21
336.661
 31
0.0
  0
LINE
  8
0
 62
     250
 10
1964.99
 20
336.661
 30
0.0
 11
1965.61
 21
338.485
 31
0.0
  0
LINE
  8
0
 62
     250
 10
1965.61
 20
338.485
 30
0.0
 11
1967.46
 21
340.315
 31
0.0
  0
LINE
  8
0
 62
     250
 10
1967.46
 20
340.315
 30
0.0
 11
1970.48
 21
341.469
 31
0.0
  0
LINE
  8
0
 62
     250
 10
1970.48
 20
341.469
 30
0.0
 11
1973.58
 21
341.871
 31
0.0
  0
LINE
  8
0
 62
     250
 10
1973.58
 20
341.871
 30
0.0
 11
1974.61
 21
341.871
 31
0.0
  0
LINE
  8
0
 62
     250
 10
1974.61
 20
341.871
 30
0.0
 11
1975.7
 21
341.871
 31
0.0
  0
LINE
  8
0
 62
     250
 10
1975.7
 20
341.871
 30
0.0
 11
1978.96
 21
341.452
 31
0.0
  0
LINE
  8
0
 62
     250
 10
1978.96
 20
341.452
 30
0.0
 11
1982.09
 21
340.243
 31
0.0
  0
LINE
  8
0
 62
     250
 10
1982.09
 20
340.243
 30
0.0
 11
1983.98
 21
338.325
 31
0.0
  0
LINE
  8
0
 62
     250
 10
1983.98
 20
338.325
 30
0.0
 11
1984.62
 21
336.412
 31
0.0
  0
LINE
  8
0
 62
     250
 10
1984.62
 20
336.412
 30
0.0
 11
1984.62
 21
335.774
 31
0.0
  0
LINE
  8
0
 62
     250
 10
1984.62
 20
335.774
 30
0.0
 11
1984.62
 21
335.182
 31
0.0
  0
LINE
  8
0
 62
     250
 10
1984.62
 20
335.182
 30
0.0
 11
1983.99
 21
333.401
 31
0.0
  0
LINE
  8
0
 62
     250
 10
1983.99
 20
333.401
 30
0.0
 11
1982.12
 21
331.545
 31
0.0
  0
LINE
  8
0
 62
     250
 10
1982.12
 20
331.545
 30
0.0
 11
1979.07
 21
330.338
 31
0.0
  0
LINE
  8
0
 62
     250
 10
1979.07
 20
330.338
 30
0.0
 11
1975.92
 21
329.907
 31
0.0
  0
LINE
  8
0
 62
     250
 10
1975.92
 20
329.907
 30
0.0
 11
1974.87
 21
329.907
 31
0.0
  0
ENDSEC
  0
EOF
